Oops, an error
Loading. Please wait.

少女A bass

55 views 1 this week
no commentswrite comment
1 2 3 4 5
3 more votes to show rating
add to favorites
×
Save as Personal and add changes to this tab that will be seen only by you. Learn more ›
×
You can save this tab as Personal to edit and correct it or add notes. All changes will be seen only by you. Learn more »
launch autoscroll
font size
0
reset
guitar tuner
edit
Autoscroll
slow
fast
+/-
esc
set tempo
stop
Author
Difficulty
[Intro]
G|----------|----------|----------|------------|
D|----------|----------|----------|------------|
A|----------|----------|----------|------------|
E|-8----\--6|-8----\--6|-8----\--6|-8----\--8-\|

G|---------|-------------|
D|---------|-------------|
A|---------|------------2|
E|-2-------|-1----0--4---|

G|----------------|----------------|----------------|----------------|
D|----------------|----------------|----------------|----------------|
A|-3-3-3-3-3-3-3-3|-3-3-3-3-3-3-3-3|----------------|----------------|
E|----------------|----------------|-2-2-2-2-2-2-2-2|-1-1-1-1-0-0-0-0|

G|--------.-----|------------------|------------------|------------------|
D|--------1-----|-------1h2p1------|--------1h2p1-----|-------1h2p1------|
A|-3--1-3------1|-3-1-3---------1-2|-3--1-3----------1|-3-1-3---------1-2|
E|-----------3--|-------------3----|---------------3--|-------------3----|

[Verse 1]
G|----------------|----------------|----------------|----------------|
D|----------------|----------------|----------------|----------------|
A|-3-3-3-3-3-3-3-3|-3-3-3-3-3-3-3-3|-3-3-3-3-3-3-3-3|-3-3-3-3-3-3-3-3|
E|----------------|----------------|----------------|----------------|

G|----------------|----------------|
D|----------------|---------1------|
A|----------------|---1-2-3---1-2-3|
E|-1-1-1-1-1-1-1-1|-1--------------|

G|----------------|----------------|----------------|----------------|
D|----------------|----------------|----------------|----------------|
A|----------------|----------------|----------------|----------------|
E|-3-3-3-3-3-3-3-3|-3-3-3-3-3-3-3-3|-3-3-3-3-3-3-3-3|-3-3-3-3-3-3-3-3|

G|----------------|----------------|
D|----------------|----------------|
A|-3-3-3-3-3-3-3-3|-3-------1------|
E|----------------|---1-2-3---1-2-3|

G|----------------|----------------|----------------|----------------|
D|----------------|----------------|----------------|----------------|
A|-3-3-3-3-3-3-3-3|-3-3-3-3-3-3-3-3|-3-3-3-3-3-3-3-3|-3-3-3-3-3-3-3-3|
E|----------------|----------------|----------------|----------------|

G|----------------|----------------|
D|----------------|---------1------|
A|----------------|---1-2-3---1-2-3|
E|-1-1-1-1-1-1-1-1|-1--------------|

G|----------------|----------------|----------------|----------------|
D|----------------|----------------|----------------|----------------|
A|----------------|----------------|----------------|-----0-0-1-1-2-2|
E|-3-3-3-3-3-3-3-3|-3-3-3-3-3-3-3-3|-3-3-3-3-3-3-3-3|-3-3------------|

G|----------------|---------------|
D|----------------|--------1------|
A|-3-3-3-3-3-3-3-3|--1-2-3---1-2-3|
E|----------------|---------------|

[Chorus]
G|-------------------------|---------------|---------------|
D|---------3\-------3----3-|---------------|---------------|
A|------3-------------3----|-3-3-1-3----1-2|-3-3-1-3--3----|
E|-1--4--------1-----------|----------3----|------------3-2|

G|-------------------------|----------------|---------------|----------------|
D|---------3\-------3----3-|----------------|---------------|----------------|
A|------3-------------3----|---------1-1-1-1|---------1-----|----------------|
E|-1--4--------1-----------|-4-4-4-4--------|-4-4-4-4----4-3|-3-3-3-3-3-3-3-3|

G|--------|--------|-----------------------------------|------------------|------------------------------|
D|--------|--------|-----------------------------------|------------------|-------------2/3-1h2p1h2p1h2p1|
A|-(Rest)-|-(Rest)-|-----10\------10\------10\---------|-3-(1-3-1---------|-3-(1-3-1---------------------|
E|--------|--------|-3/-------3/-------3/-------3--3--3|----------3)-1-3--|----------3)------------------|

[Instrumental]
G|----------------|----------------|----------------|----------------|
D|----------------|----------------|----------------|----------------|
A|----------------|----------------|-3-3-3-3-3-3-3-3|-3-3-3-3-3-3-3-3|
E|-4-4-4-4-4-4-4-4|-4-4-4-4-4-4-4-4|----------------|----------------|

G|----------------|----------------|----------------|---------3h4p3h4p3h4p3h4p3|
D|----------------|----------------|----------------|-----5-5------------------|
A|----------------|----------------|----------------|--------------------------|
E|-4-4-4-4-4-4-4-4|-4-4-4-4-4-4-4-4|-3-3-3-3-3-3-3-3|-3-3----------------------|

[Interlude]
G|-----------------|------------------|------------------|------------------|
D|--------1h2p1----|-------1h2p1------|--------1h2p1-----|-------1h2p1------|
A|-3--1-3---------1|-3-1-3---------1-2|-3--1-3----------1|-3-1-3---------1-2|
E|--------------3--|-------------3----|---------------3--|-------------3----|

[Verse 2]
G|----------------|----------------|----------------|----------------|
D|----------------|----------------|----------------|----------------|
A|-3-3-3-3-3-3-3-3|-3-3-3-3-3-3-3-3|-3-3-3-3-3-3-3-3|-3-3-3-3-3-3-3-3|
E|----------------|----------------|----------------|----------------|

G|----------------|----------------|
D|----------------|---------1------|
A|----------------|---1-2-3---1-2-3|
E|-1-1-1-1-1-1-1-1|-1--------------|

G|----------------|----------------|----------------|----------------|
D|----------------|----------------|----------------|----------------|
A|----------------|----------------|----------------|----------------|
E|-3-3-3-3-3-3-3-3|-3-3-3-3-3-3-3-3|-3-3-3-3-3-3-3-3|-3-3-3-3-3-3-3-3|

G|----------------|----------------|
D|----------------|----------------|
A|-3-3-3-3-3-3-3-3|-3-------1------|
E|----------------|---1-2-3---1-2-3|

G|----------------|----------------|----------------|----------------|
D|----------------|----------------|----------------|----------------|
A|-3-3-3-3-3-3-3-3|-3-3-3-3-3-3-3-3|-3-3-3-3-3-3-3-3|-3-3-3-3-3-3-3-3|
E|----------------|----------------|----------------|----------------|

G|----------------|----------------|
D|----------------|---------1------|
A|----------------|---1-2-3---1-2-3|
E|-1-1-1-1-1-1-1-1|-1--------------|

G|----------------|----------------|----------------|----------------|
D|----------------|----------------|----------------|----------------|
A|----------------|----------------|----------------|-----0-0-1-1-2-2|
E|-3-3-3-3-3-3-3-3|-3-3-3-3-3-3-3-3|-3-3-3-3-3-3-3-3|-3-3------------|

G|----------------|---------------|
D|----------------|--------1------|
A|-3-3-3-3-3-3-3-3|--1-2-3---1-2-3|
E|----------------|---------------|

[Chorus]
G|--------------------------|---------------|---------------|
D|---------3\-------3----3-3|---------------|---------------|
A|------3-------------3-----|-3-3-1-3----1-2|-3-3-1-3--3----|
E|-1--4--------1------------|----------3----|------------3-2|

G|-------------------------|----------------|----------------|----------------|
D|---------3\-------3----3-|----------------|----------------|----------------|
A|------3-------------3----|---------1-1-1-1|---------1-1----|----------------|
E|-1--4--------1-----------|-4-4-4-4--------|-4-4-4-4-----4-3|-3-3-3-3-3-3-3-3|

G|--------|--------|-----------------------------------|
D|--------|--------|-----------------------------------|
A|-(Rest)-|-(Rest)-|-----10\------10\------10\---------|
E|--------|--------|-3/-------3/-------3/-------3--3--3|

[Interlude]
G|----------------|----------------|----------------|----------------|
D|----------------|----------------|----------------|----------------|
A|-3-3-3-3-3-3-3-3|-1-1-1-1-1-1-1-1|----------------|----------------|
E|----------------|----------------|-4-4-4-4-4-4-4-4|-3-3-3-3-3-3-3-3|

[Chorus]
G|--------------------------|---------------|---------------|
D|---------3\------------3-3|---------------|---------------|
A|------3-------------3-----|-3-3-1-3----1-2|-3-3-1-3--3----|
E|-1--4--------1----1-------|----------3----|------------3-2|

G|-------------------------|----------------|----------------|----------------|
D|---------3\-------3----3-|----------------|----------------|----------------|
A|------3-------------3----|---------1-1-1-1|---------1-1----|----------------|
E|-1--4--------1-----------|-4-4-4-4--------|-4-4-4-4-----4-3|-3-3-3-3-3-3-3-3|

G|--------|--------|-----------------------------------|
D|--------|--------|-----------------------------------|
A|-(Rest)-|-(Rest)-|-----10\------10\------10\---------|
E|--------|--------|-3/-------3/-------3/-------3--3--3|

[Outro]
G|-----------------|------------------|--------3h4p3----|-------3h4p3------|
D|--------1h2p1----|-------1h2p1------|-5--3-5---------3|-5-3-5---------3-5|
A|-3--1-3-------1-3|-3-1-3---------1-2|--------------5--|-------------5----|
E|-----------------|-------------3----|-----------------|------------------|

G|----------------|----------------|-------|
D|----------------|----------------|-------|
A|----------------|---------------2|-3---3-|
E|-2-2-2-2-2-2-2-2|-1-1-1-1-0--4---|-------|


*********************************

| / Slide up
| \ Slide down
| h Hammer-on
| p Pull-off
| . Staccato
| (n-n) Fast

*********************************

            
            
Suggest correction
Creating personal tab
Creating personal tab
You can edit any tab online and save it as your Personal.

You can edit, replace or remove any tab part or add personal notes – all changes will be seen only by you.

Personal tabs can be accessed anytime from any device, even offline.
Learn more »
Give kudos to tab author, rate the tab!
1 2 3 4 5
comments
print report bad tab
guest
You may want to rate the tab now too:
select rating
Wanna post a correction for this tab? Suggest correction