Oops, an error
Loading. Please wait.

夏の日の午後 bass

28 views 1 this week
no commentswrite comment
1 2 3 4 5
3 more votes to show rating
add to favorites
×
Save as Personal and add changes to this tab that will be seen only by you. Learn more ›
×
You can save this tab as Personal to edit and correct it or add notes. All changes will be seen only by you. Learn more »
launch autoscroll
font size
0
reset
guitar tuner
edit
Autoscroll
slow
fast
+/-
esc
set tempo
stop
Author
Difficulty
(Bass Start - 00:19)

[Intro]
G|----------------|----------------|----------------|----------------|
D|-6-6-6-6-6-6-6-6|-4-4-4-4-4-4-4-4|----------------|----------------|
A|----------------|----------------|-7-7-7-7-7-7-7-7|-6-6-6-6-6-6-6-6|
E|----------------|----------------|----------------|----------------|

G|----------------|----------------|----------------|----------------|
D|-6-6-6-6-6-6-6-6|-4-4-4-4-4-4-4-4|----------------|-4-4-4-4-4-4-4-4|
A|----------------|----------------|-7-7-7-7-7-7-7-7|----------------|
E|----------------|----------------|----------------|----------------|

[Verse 1]
G|----------------|--------------------|----------------|--------------------|
D|----------------|--------------------|-6-6-6-6--------|---------(4-4-4)-4-4|
A|----------------|--------------------|---------6-6-6-6|-7-7-7-7------------|
E|-7-7-7-7-6-6-6-6|-4-4-4-4-(4-4-4)-4-4|----------------|--------------------|

G|----------------|--------------------|----------------|----------------|
D|----------------|-6-6-6-6-(6-6-6)-6-6|----------------|-4-4-4-4-4-4-4-4|
A|-7-7-7-7-6-6-6-6|--------------------|-4-4-4-4-4-4-4-4|----------------|
E|----------------|--------------------|----------------|----------------|

G|----------------|--------------------|----------------|--------------------|
D|----------------|--------------------|-6-6-6-6--------|---------(4-4-4)-4-4|
A|----------------|--------------------|---------6-6-6-6|-7-7-7-7------------|
E|-7-7-7-7-6-6-6-6|-4-4-4-4-(4-4-4)-4-4|----------------|--------------------|

G|----------------|--------------------|----------------|-4-4-4-4-4-4-4-(4-------------------|
D|----------------|-6-6-6-6-(6-6-6)-6-6|---------4-4-4-4|------------------4-----------------|
A|-7-7-7-7-6-6-6-6|--------------------|-4-4-4-4--------|--------------------2)-2-2-2-2-2-2-2|
E|----------------|--------------------|----------------|------------------------------------|

[Chorus]
G|----------------|----------------|----------------|----------------|
D|-2-2-2-2-2-2-2-2|-2-2-2-2-2-2-2-2|----------------|-6-6-6-6-6-6-6-6|
A|----------------|----------------|-6-6-6-6-6-6-6-6|----------------|
E|----------------|----------------|----------------|----------------|

G|----------------|----------------|-4-4-4-4-4-4-4-(4-------------------|
D|----------------|-4-4-4-4-4-4-4-4|------------------4-----------------|
A|-4-4-4-4-4-4-4-4|----------------|--------------------2)-2-2-2-2-2-2-2|
E|----------------|----------------|------------------------------------|

G|----------------|----------------|----------------|----------------|
D|-2-2-2-2-2-2-2-2|-2-2-2-2-2-2-2-2|----------------|-6-6-6-6-6-6-6-6|
A|----------------|----------------|-6-6-6-6-6-6-6-6|----------------|
E|----------------|----------------|----------------|----------------|

G|----------------|---------|
D|----------------|-4-------|
A|-4-4-4-4-4-4-4-4|---------|
E|----------------|---------|

[Interlude]
G|----------------|----------------|----------------|----------------|
D|-6-6-6-6-6-6-6-6|-4-4-4-4-4-4-4-4|----------------|----------------|
A|----------------|----------------|-7-7-7-7-7-7-7-7|-6-6-6-6-6-6-6-6|
E|----------------|----------------|----------------|----------------|

G|----------------|----------------|----------------|----------------|
D|-6-6-6-6-6-6-6-6|-4-4-4-4-4-4-4-4|----------------|-4-4-4-4-4-4-4-4|
A|----------------|----------------|-7-7-7-7-7-7-7-7|----------------|
E|----------------|----------------|----------------|----------------|

[Verse 2]
G|----------------|--------------------|----------------|--------------------|
D|----------------|--------------------|-6-6-6-6--------|---------(4-4-4)-4-4|
A|----------------|--------------------|---------6-6-6-6|-7-7-7-7------------|
E|-7-7-7-7-6-6-6-6|-4-4-4-4-(4-4-4)-4-4|----------------|--------------------|

G|----------------|--------------------|----------------|----------------|
D|----------------|-6-6-6-6-(6-6-6)-6-6|----------------|-4-4-4-4-4-4-4-4|
A|-7-7-7-7-6-6-6-6|--------------------|-4-4-4-4-4-4-4-4|----------------|
E|----------------|--------------------|----------------|----------------|

G|----------------|--------------------|----------------|--------------------|
D|----------------|--------------------|-6-6-6-6--------|---------(4-4-4)-4-4|
A|----------------|--------------------|---------6-6-6-6|-7-7-7-7------------|
E|-7-7-7-7-6-6-6-6|-4-4-4-4-(4-4-4)-4-4|----------------|--------------------|

G|----------------|---------------|----------------|-4-4-4-4-4-4-4-(4-------------------|
D|----------------|-6-6-6-6-6--6-6|---------4-4-4-4|------------------4-----------------|
A|-7-7-7-7-6-6-6-6|---------------|-4-4-4-4--------|--------------------2)-2-2-2-2-2-2-2|
E|----------------|---------------|----------------|------------------------------------|

[Chorus]
G|----------------|----------------|----------------|----------------|
D|-2-2-2-2-2-2-2-2|-2-2-2-2-2-2-2-2|----------------|-6-6-6-6-6-6-6-6|
A|----------------|----------------|-6-6-6-6-6-6-6-6|----------------|
E|----------------|----------------|----------------|----------------|

G|----------------|----------------|-4-4-4-4-4-4-4-(4-------------------|
D|----------------|-4-4-4-4-4-4-4-4|------------------4-----------------|
A|-4-4-4-4-4-4-4-4|----------------|--------------------2)-2-2-2-2-2-2-2|
E|----------------|----------------|------------------------------------|

G|----------------|----------------|----------------|----------------|
D|-2-2-2-2-2-2-2-2|-2-2-2-2-2-2-2-2|----------------|-6-6-6-6-6-6-6-6|
A|----------------|----------------|-6-6-6-6-6-6-6-6|----------------|
E|----------------|----------------|----------------|----------------|

G|----------------|---------|
D|----------------|---------|
A|-4-4-4-4-4-4-4-4|---------|
E|----------------|-2-------|

[Instrumental]
G|----------------|----------------|----------------|----------------|
D|----------------|----------------|----------------|----------------|
A|-2-2-2-2-2-2-2-2|----------------|----------------|----------------|
E|----------------|-5-5-5-5-5-5-5-5|-4-4-4-4-4-4-4-4|-3-3-3-3-5-5-5-5|

G|----------------|----------------|----------------|----------------|
D|-----------1----|----------------|----------------|---------------4|
A|-2-2-2-2-2---4-2|----------------|----------------|-------------4--|
E|----------------|-5-5-5-5-5-5-5-5|-4-4-4-4-4-4-4-4|-2-2-2-2-2-2----|

[Chorus]
G|----------------|----------------|----------------|----------------|
D|-2-2-2-2-2-2-2-2|-2-2-2-2-2-2-2-2|----------------|-6-6-6-6-6-6-6-6|
A|----------------|----------------|-6-6-6-6-6-6-6-6|----------------|
E|----------------|----------------|----------------|----------------|

G|----------------|----------------|-4-4-4-4-4-4-4-(4-------------------|
D|----------------|-4-4-4-4-4-4-4-4|------------------4-----------------|
A|-4-4-4-4-4-4-4-4|----------------|--------------------2)-2-2-2-2-2-2-2|
E|----------------|----------------|------------------------------------|

G|----------------|----------------|----------------|----------------|
D|-2-2-2-2-2-2-2-2|-2-2-2-2-2-2-2-2|----------------|-6-6-6-6-6-6-6-6|
A|----------------|----------------|-6-6-6-6-6-6-6-6|----------------|
E|----------------|----------------|----------------|----------------|

G|----------------|---------|
D|----------------|---------|
A|-4-4-4-4-4-4-4-4|---------|
E|----------------|-2-------|

[Outro]
G|----------------|----------------|----------------|----------------|
D|----------------|----------------|----------------|---------------4|
A|----------------|----------------|----------------|-------------4--|
E|-3-3-3-3-3-3-3-3|-3-3-3-3-3-3-3-3|-2-2-2-2-2-2-2-2|-2-2-2-2-2-2----|

G|------------------------------------|----------------|----------------|
D|---------------(5-------------------|----------------|----------------|
A|------------------5-----------------|----------------|----------------|
E|-3-3-3-3-3-3-3------3)-3-3-3-3-3-3-3|-2-2-2-2-2-2-2-2|-2-2-2-2-2-2-2-2|

G|----------------|----------------|----------------|----------------|
D|----------------|----------------|----------------|---------------4|
A|----------------|----------------|----------------|-------------4--|
E|-3-3-3-3-3-3-3-3|-3-3-3-3-3-3-3-3|-2-2-2-2-2-2-2-2|-2-2-2-2-2-2----|

G|------------------------------------|----------------|----------------|---|
D|---------------(5-------------------|----------------|----------------|---|
A|------------------5-----------------|----------------|----------------|---|
E|-3-3-3-3-3-3-3------3)-3-3-3-3-3-3-3|-2-2-2-2-2-2-2-2|-2-2-2-2-2-2-2-2|-3-|


**********************************

| (n-n) Fast

**********************************

            
            
Suggest correction
Creating personal tab
Creating personal tab
You can edit any tab online and save it as your Personal.

You can edit, replace or remove any tab part or add personal notes – all changes will be seen only by you.

Personal tabs can be accessed anytime from any device, even offline.
Learn more »
Give kudos to tab author, rate the tab!
1 2 3 4 5
comments
print report bad tab
guest
You may want to rate the tab now too:
select rating
Wanna post a correction for this tab? Suggest correction