Oops, an error
Loading. Please wait.

Princesa chords

103 views 1 this week
no commentswrite comment
1 2 3 4 5
3 more votes to show rating
add to favorites
×
Save as Personal and add changes to this tab that will be seen only by you. Learn more ›
×
You can save this tab as Personal to edit and correct it or add notes. All changes will be seen only by you. Learn more »
launch autoscroll
font size
0
reset
transpose
0
reset
simplify chords
display chords
guitar tuner
edit
Autoscroll
slow
fast
+/-
esc
set tempo
stop
About this tab version
First tabbed, tabbed note per note to sound identical to the original song, capo on first, check the demo cover to understand the 3 different rythms of this song. Was this info helpful? Yes No
Strumming
There is no strumming pattern for this song yet. and get +5 IQ
Rola sacada por Edgar Chez 01/03/2017
Demo Cover: https://youtu.be/CDO3olP2k9Q
Tutorial: https://www.youtube.com/watch?v=aChVZJBEhoY

Standard Tunning EADGBe Capo on 1st Fret


[Intro]
C               G
CNCO Con Rio Roma
Am                    F 
Para todas las princesas

[Strophe]    
   C                                                      G                                          
   Eres lo primero que yo pienso cuando alguien me dice: "pide un deseo"                                    
e|-----------------------------------------------------------------------|
B|---------------1---------------------------------------------------0---|
G|--------------------------------------------0--------------------0-----|
D|------2-----------------------------------------2--------------0-------|
A|-3---------------------------------------------------------------------|
E|--------------------------------------------------------3--------------|
 
  Am                                               F
  Eres tú quien causa que sonría como tonto cuando dices te quiero                           
e|-------------------------------------------------------------3---|---1-0--|
B|---------------1----------------------------------------1--------|-1----1-|
G|------------------------------------2----------------------------|--------|
D|-----2----------------------------------2------------------------|--------|
A|-0--------------------------------------------------3------------|--------|
E|-------------------------------------------------1---------------|--------|

      C                          G
  Que bueno que los pensamientos no se ven, 
e|---------------0---0-----------------------0--------------------|
B|-----------1----------1----------------3-------3----------------|
G|--------------------------0-------------------------------------|
D|-------2--------------------------0-----------------------------|
A|----3-----------------------------------------------------------|
E|-------------------------------3--------------------------------|

           Am                                    Fm11
  te sudarian hasta las manos          si vieras que te quiero hacer
e|------------------------------0---------------------------------1--|
B|-------------------------1-------1----------------------1----------|
G|-------------------------------------------------------------------|
D|---------------2---------------------------------------------------|
A|---------0---------------------------------------------------------|
E|-----------------------------------------------1-------------------|
  
[Prechorus]
  C                           G  
Y ya se que estas aburrida de promesas incumplidas,
      Am                     F
de palabras y contratos, de amores para un rato
C 
Tengamos algo sin mentiras...
G 
poquito a poco no hay prisa...
Am                      F 
soy son de tu belleza, cuidarte es mi promesa

[Chorus]
                           C
Quiero que tu seas mi princesa, 
              G                     Am
que sean mis labios solo los que te besan...
          F                                        G
tocar tu suave piel cuando la noche empieza hasta volverte mía 
  
     C
Princesa... 
       G                         Am
habrá luna de miel cada que te vea,
          F
hacerte muy feliz es lo que me interesa
  C                         G 
estar dentro de ti y de tu cabeza
                            C
pues quiero que seas mi princesa...
        F         G          C 
Baby quiero que seas mi princesa...

[Bridge]

C G Am F

[Strophe]
    C                                              G
  Mueves tu cintura y yo empiezo a imaginarte haciendo locuras,
e|-----------------------------------------------------------------------|
B|---------------1-------------------------------------------2-----2-----|
G|-----------------------------0--------------------------------0--------|
D|-------2---------------------------------1---------0-------------------|
A|-3---------------------------------------------------------------------|
E|------------------------------------------------3----------------------|

            Am                                    F
  Veo tu boquita y ya quiero enseñarle a hacer travesuras
e|------------------------------0---------------------------3--|---1-0--|
B|-------------------------1-------1----------------------1----|-1----1-|
G|-------------------------------------------------------------|--------|
D|---------------2---------------------------------------------|--------|
A|---------0-----------------------------------------3---------|--------|
E|-----------------------------------------------1-------------|--------|
  
    C                                          G                                       Am
  Tu sigue bailando mientras sigo imaginando lo que hoy te voy a hacer llegando a casa cuando nadie vea nada
e|-----------------------------------------------------------------------------1---------------------0-----|
B|-------------------1--------------------------------------------------2--------------2-----------------1-|
G|----------0-----------------0------------------------------------------------------------------2---------|
D|----------------------------------------2--------------------0-------------------------------------------|
A|-3-------------------------------------------------------------------------------------------------------|
E|---------------------------------------------3----------------------------------------------0------------|

              F
   Te explicarán mis manos que me encantas
e|-----------------------------1------------|
B|---------------------------------------1--|
G|------------------2-----------------------|
D|------------------------------------------|
A|------------------------------------------|
E|------------1-----------------------------|

[Prechorus]
  C                           G  
Y ya se que estas aburrida de promesas incumplidas,
      Am                     F
de palabras y contratos, de amores para un rato
C 
Tengamos algo sin mentiras...
G 
poquito a poco no hay prisa...
Am                      F 
soy son de tu belleza, cuidarte es mi promesa

[Chorus]
                           C
Quiero que tu seas mi princesa, 
              G                     Am
que sean mis labios solo los que te besan...
          F                                        G
tocar tu suave piel cuando la noche empieza hasta volverte mía 

     C
Princesa... 
       G                         Am
habrá luna de miel cada que te vea,
          F
hacerte muy feliz es lo que me interesa
  C                         G 
estar dentro de ti y de tu cabeza

[Prechorus]
                          C                              Am 
Sabes que...Nunca había sentido estoy que estoy sintiendo 
            F            G                 C
Por eso él adora y te valora... el corazón 

[Prechorus]
                           C
Quiero que tu seas mi princesa,
              G                     Am
que sean mis labios solo los que te besan...
          F                                        G
tocar tu suave piel cuando la noche empieza hasta volverte mía 
     C
Princesa... 
       G                         Am
habrá luna de miel cada que te vea,
          F
hacerte muy feliz es lo que me interesa
 
 C                         G 
estar dentro de ti y de tu cabeza
                            C
pues quiero que seas mi princesa...
        F         G          C      G Am F
Baby quiero que seas mi princesa...

[Outro]
C      G       Am       F
ay bebé como te quiero yo
C      G       Am       F
Rio Roma       CNCO
C            G                    Am                        F
Hoy te juro mi vida que como me encantas... mi amor... mi amor


            
            
Suggest correction
Creating personal tab
Creating personal tab
You can edit any tab online and save it as your Personal.

You can edit, replace or remove any tab part or add personal notes – all changes will be seen only by you.

Personal tabs can be accessed anytime from any device, even offline.
Learn more »
Give kudos to tab author, rate the tab!
1 2 3 4 5
comments
print report bad tab
guest
You may want to rate the tab now too:
select rating
Wanna post a correction for this tab? Suggest correction