Oops, an error
Loading. Please wait.

Você Vai Lembrar De Mim Acoustic chords

version 1
version 1

Whole song

  • This specific tab is based on the acoustic version... Show more

Interactive

28 views 1 this week
no commentswrite comment
1 2 3 4 5
3 more votes to show rating
add to favorites
×
Save as Personal and add changes to this tab that will be seen only by you. Learn more ›
×
You can save this tab as Personal to edit and correct it or add notes. All changes will be seen only by you. Learn more »
launch autoscroll
font size
0
reset
transpose
0
reset
simplify chords
display chords
guitar tuner
edit
Autoscroll
slow
fast
+/-
esc
set tempo
stop
Author
Difficulty
Strumming
There is no strumming pattern for this song yet. and get +5 IQ
[Intro]
   A    A4     Dm
e|---0---------1---------------| 
B|-----2/3------3--------------| 
G|--2------------2-------------| (2x)
D|--------0--------------------| 
A|-0--0------------------------| 
E|-----------------------------| 

[Verse 1]
(You can play the same riff of Intro.)
A            A4 Dm
Quando eu te vejo
  A            A4 Dm
Espero teu beijo
    A            A4 Dm
Não sinto vergonha
 A          A4 Dm
Apenas desejo
      A          A4 Dm
Minha boca encosta
       A          A4 Dm
Em tua boca que treme
     A          A4 Dm
Meus olhos eu fecho
       A              A4 Dm
Mas os teus estão abertos

[Bridge]
Bm                  E
Tudo bem se não deu certo
    Bm
Eu achei que nós
             E
Chegamos tão perto
     F#m           A           Bm     D
Mas agora - com certeza - eu enxergo
       E        E4         E5/A#
Que no fim eu amei por nós dois

[Verse 2]
(You can play the same riff of Intro.)
A            A4 Dm
Esse foi um beijo 
A            A4 Dm
de despedida
A            A4 Dm        A            A4 Dm
Que se dá uma vez só na vida
      A        A4 Dm
Que explica tudo 
A            A4 Dm
sem brigas
      A            A4 Dm   A            A4 Dm   
E clareia o mais escuro dos dias

[Bridge]
Bm                  E
Tudo bem se não deu certo
    Bm
Eu achei que nós
             E
Chegamos tão perto
     F#m           A           Bm     D
Mas agora - com certeza - eu enxergo
       E        E4         E5/A#
Que no fim eu amei por nós dois

[Chorus]
         A         E                 Bm
Mas você lembra! Você vai lembrar de mim
             D           Dm
Que o nosso amor valeu à pena
A           E             Bm
Lembra! É o nosso final feliz
     D          Dm             E   E4  E5/A#
Você vai lembrar Vai lembrar sim.
                A               A4      Dm  
Você lembrar de mim! 
                A               A4      Dm

[Verse 2]
(You can play the same riff of Intro.)
A            A4 Dm
Esse foi um beijo 
A            A4 Dm
de despedida
A            A4 Dm        A            A4 Dm
Que se dá uma vez só na vida
      A        A4 Dm
Que explica tudo 
A            A4 Dm
sem brigas
      A            A4 Dm   A            A4 Dm   
E clareia o mais escuro dos dias

[Bridge]
Bm                  E
Tudo bem se não deu certo
    Bm
Eu achei que nós
             E
Chegamos tão perto
     F#m           A           Bm     D
Mas agora - com certeza - eu enxergo
       E        E4         E5/A#
Que no fim eu amei por nós dois

[Chorus]
         A         E                 Bm
Mas você lembra! Você vai lembrar de mim
             D           Dm
Que o nosso amor valeu à pena
A           E             Bm
Lembra! É o nosso final feliz
     D          Dm             E   E4  E5/A#
Você vai lembrar Vai lembrar sim.
                A               A4      Dm  
Você lembrar de mim! 
                A               A4      Dm

[Solo]
E|-------------------------------------------------------------| 
B|-3p2h3-3-2---------------------------------------------------|
G|-----------4-2--------------------2--------------------------|  (x2)
D|---------------4-2h4-2--------2-4----------------------------|
A|------------------------4-2h4--------------------------------|
E|-------------------------------------------------------------|

E|-----------------------------------------------------5--5--5--| 
B|-3/2-3-5-3-2---------------------------------2-3--3/5--5--5---|
G|--------------4-2h4-2-------1---1-1-2-4---4-4-----------------|    
D|----------------------4-2h4-----------------------------------|
A|--------------------------------------------------------------|
E|--------------------------------------------------------------|

A E Bm D Dm 

[Chorus]
         A         E                 Bm
Mas você lembra! Você vai lembrar de mim
             D           Dm
Que o nosso amor valeu à pena
A           E             Bm
Lembra! É o nosso final feliz
     D          Dm             E   E4  E5/A#
Você vai lembrar Vai lembrar sim.
                A               A4      Dm  
Você lembrar de mim! 
                A               A4      Dm

[Outro]
   A    A4     Dm
e|---0---------1---------------| 
B|-----2/3------3--------------| 
G|--2------------2-------------| (2x)
D|--------0--------------------| 
A|-0--0------------------------| 
E|-----------------------------| 

            
            
Suggest correction
Creating personal tab
Creating personal tab
You can edit any tab online and save it as your Personal.

You can edit, replace or remove any tab part or add personal notes – all changes will be seen only by you.

Personal tabs can be accessed anytime from any device, even offline.
Learn more »
Give kudos to tab author, rate the tab!
1 2 3 4 5
comments
print report bad tab
guest
You may want to rate the tab now too:
select rating
Wanna post a correction for this tab? Suggest correction