Oops, an error
Loading. Please wait.

Wo Ist Die Euphorie tab

version 1
version 1

Whole song

70 views 3 this week
2 commentsread comments
1 2 3 4 5
3 more votes to show rating
add to favorites
×
Save as Personal and add changes to this tab that will be seen only by you. Learn more ›
×
You can save this tab as Personal to edit and correct it or add notes. All changes will be seen only by you. Learn more »
launch autoscroll
font size
0
reset
how to read this tab
guitar tuner
edit
Autoscroll
slow
fast
+/-
esc
set tempo
stop
Author
Difficulty
[Intro]
e|-----------------|-----------------|-----------------|-----------------|
B|-----------------|-----------------|-----------------|-----------------|
G|-----------------|-----------------|-----------------|-----------------|
D|-5-5-5-5-5-5-5-5-|-5-5-5-5-5-5-5-5-|-5-4-4-4-4-4-4-4-|-4-4-4-4-4-4-4-4-|
A|-----------------|-----------------|-----------------|-----------------|
E|-----------------|-----------------|-----------------|-----------------|

e|-----------------|-----------------|-----------------|-----------------|
B|-----------------|-----------------|-----------------|-----------------|
G|-----------------|-----------------|-----------------|-----------------|
D|-5-5-5-5-5-5-5-5-|-5-5-5-5-5-5-5-5-|-----------------|-----------------|
A|-----------------|-----------------|-2-2-2-2-2-2-2-2-|-2-2-2-2-2-2-2-2-|
E|-----------------|-----------------|-----------------|-----------------|


e|-----------------|-----------------|-----------------|-----------------|
B|-----------------|-----------------|-----------------|-----------------|
G|-----------------|-----------------|-----------------|-----------------|
D|-5-5-5-5-5-5-5-5-|-5-5-5-5-5-5-5-5-|-5-4-4-4-4-4-4-4-|-7-4-4-7-4-4-7-4-|
A|-----------------|-----------------|-----------------|-----------------|
E|-----------------|-----------------|-----------------|-----------------|

e|-----------------|-----------------|-----------------|-----------------|
B|-----------------|-----------------|-----------------|-----------------|
G|-----------------|-----------------|-----------------|-----------------|
D|-5-5-5-5-5-5-5-5-|-5-5-5-5-5-5-5-5-|-----------------|-----------------|
A|-----------------|-----------------|-2-2-2-2-2-2-2-2-|-2-2-2-2-2-------|
E|-----------------|-----------------|-----------------|-----------------|

[Verse]
e|-----------------|-----------------|-----------------|-----------------|
B|-----------------|-----------------|-----------------|-------------8\--|
G|-----------------|-----------------|-----------------|-5-5-5-4-4-4-----|
D|-----------------|-----------------|-4-4-4-4-4-4-4-4-|-----------------|
A|-----------------|-----------------|-----------------|-----------------|
E|-3-3-3-3-3-3-3-3-|-3-3-3-3-3-3-3-3-|-----------------|-----------------|

e|-----------------|-----------------|-----------------|-----------------|
B|-----------------|-----------------|-----------------|-----------------|
G|-----------------|-----------------|-----------------|-5-5-5-4-4-4-5---|
D|-----------------|-----------------|-4-4-4-4-4-4-4-4-|-----------------|
A|-----------------|-----------------|-----------------|-----------------|
E|-3-3-3-3-3-3-3-3-|-3-3-3-3-3-3-3-3-|-----------------|-----------------|

e|-----------------|-----------------|-----------------|-----------------|
B|-----------------|-----------------|-----------------|-------------8\--|
G|-----------------|-----------------|-----------------|-5-5-5-4-4-4-----|
D|-----------------|-----------------|-4-4-4-4-4-4-4-4-|-----------------|
A|-----------------|-----------------|-----------------|-----------------|
E|-3-3-3-3-3-3-3-3-|-3-3-3-3-3-3-3-3-|-----------------|-----------------|


e|-----------------|-----------------|-----------------|-----------------|
B|-----------------|-----------------|-----------------|-------------8---|
G|-----------------|-----------------|-----------------|-5-5-5-4-4-4-----|
D|-----------------|-----------------|-4-4-4-4-4-4-4-4-|-----------------|
A|-----------------|-----------------|-----------------|-----------------|
E|-3-3-3-3-3-3-3-3-|-3-3-3-3-3-3-3-3-|-----------------|-----------------|

[Pre-Chorus]
e|-----------------|-----------------|-----------------|-8-8-8-7-7-7-8-8-|
B|-8-8-8---8-8-8---|-8-8-8---8b9r8---|-7-7-7---7-7-7---|-----------------|
G|-----------------|-----------------|-----------------|-----------------|
D|-----------------|-----------------|-----------------|-----------------|
A|-----------------|-----------------|-----------------|-----------------|
E|-----------------|-----------------|-----------------|-----------------|

e|-----------------|-----------------|-----------------|-8-8-8-7-7-7-8\--|
B|-8-8-8---8-8-8---|-8-8-8---8b9r8---|-7-7-7---7-7-7---|-----------------|
G|-----------------|-----------------|-----------------|-----------------|
D|-----------------|-----------------|-----------------|-----------------|
A|-----------------|-----------------|-----------------|-----------------|
E|-----------------|-----------------|-----------------|-----------------|

[Chorus]
e|-----------------|-----------------|-----------------|-----------------|
B|-----------------|-----------3-3---|-----------------|-7-7-7-5-5-5-3-3-|
G|-5-5-5-5-5-5-5-5-|-5-5-5-5-5-----5-|-4-4-4-4-4-4-4-4-|-----------------|
D|-----------------|-----------------|-----------------|-----------------|
A|-----------------|-----------------|-----------------|-----------------|
E|-----------------|-----------------|-----------------|-----------------|

e|-----------------|-----------------|-----------------|-----------------|
B|-----------------|-----------3-3---|-----------------|-7-7-7-5-5-5-3-3-|
G|-5-5-5-5-5-5-5-5-|-5-5-5-5-5-----5-|-4-4-4-4-4-4-4-4-|-----------------|
D|-----------------|-----------------|-----------------|-----------------|
A|-----------------|-----------------|-----------------|-----------------|
E|-----------------|-----------------|-----------------|-----------------|

e|-----------------|-----------------|-----------------|-----------------|
B|-----------------|-----------------|-----------------|-7-7-7-5-5-5-3-3-|
G|-5-5-5-5-5-5-5-5-|-5-5-5-5-5-5-5-5-|-4-4-4-4-4-4-4-4-|-----------------|
D|-----------------|-----------------|-----------------|-----------------|
A|-----------------|-----------------|-----------------|-----------------|
E|-----------------|-----------------|-----------------|-----------------|
    (Bend gradually to get it dirty)

e|-----------------|-----------------|-----------------|-----------------|
B|-----------------|-----------3-3---|-----------------|-----------------|
G|-5-5-5-5-5-5-5-5-|-5-5-5-5-5-----5-|-4-4-4-4-4-4-4-4-|-4-4-4-4-4-4-7-7-|
D|-----------------|-----------------|-----------------|-----------------|
A|-----------------|-----------------|-----------------|-----------------|
E|-----------------|-----------------|-----------------|-----------------|

[Verse]
e|-----------------|-----------------|-----------------|-----------------|
B|-----------------|-----------------|-----------------|-----------------|
G|-5---------------|-----------------|-4-4-4-4-4-4-4-4-|-4-4-4-4-4-4-4-4-|
D|-----------------|-----------------|-----------------|-----------------|
A|-----------------|-----------------|-----------------|-----------------|
E|-----------------|-----------------|-----------------|-----------------|

e|-----------------|-----------------|-----------------|-----------------|
B|-----------------|-----------------|-----------------|-------------8\--|
G|-----------------|-----------------|-----------------|-5-5-5-4-4-4-----|
D|-----------------|-----------------|-4-4-4-4-4-4-4-4-|-----------------|
A|-----------------|-----------------|-----------------|-----------------|
E|-3-3-3-3-3-3-3-3-|-3-3-3-3-3-3-3-3-|-----------------|-----------------|

e|-----------------|-----------------|-----------------|-----------------|
B|-----------------|-----------------|-----------------|-----------------|
G|-----------------|-----------------|-----------------|-5-5-5-4-4-4-5---|
D|-----------------|-----------------|-4-4-4-4-4-4-4-4-|-----------------|
A|-----------------|-----------------|-----------------|-----------------|
E|-3-3-3-3-3-3-3-3-|-3-3-3-3-3-3-3-3-|-----------------|-----------------|

e|-----------------|-----------------|-----------------|-----------------|
B|-----------------|-----------------|-----------------|-------------8---|
G|-----------------|-----------------|-----------------|-5-5-5-4-4-4-----|
D|-----------------|-----------------|-4-4-4-4-4-4-4-4-|-----------------|
A|-----------------|-----------------|-----------------|-----------------|
E|-3-3-3-3-3-3-3-3-|-3-3-3-3-3-3-3-3-|-----------------|-----------------|

[Chorus]
e|-----------------|-----------------|-----------------|-----------------|
B|-----------------|-----------3-3---|-----------------|-7-7-7-5-5-5-3-3-|
G|-5-5-5-5-5-5-5-5-|-5-5-5-5-5-----5-|-4-4-4-4-4-4-4-4-|-----------------|
D|-----------------|-----------------|-----------------|-----------------|
A|-----------------|-----------------|-----------------|-----------------|
E|-----------------|-----------------|-----------------|-----------------|

e|-----------------|-----------------|-----------------|-----------------|
B|-----------------|-----------3-3---|-----------------|-7-7-7-5-5-5-3-3-|
G|-5-5-5-5-5-5-5-5-|-5-5-5-5-5-----5-|-4-4-4-4-4-4-4-4-|-----------------|
D|-----------------|-----------------|-----------------|-----------------|
A|-----------------|-----------------|-----------------|-----------------|
E|-----------------|-----------------|-----------------|-----------------|

e|-----------------|-----------------|-----------------|--------------------|
B|-8-8-8-8-8-8-8-8-|-8-8-8-8-8-8-8-8-|-7-7-7-7-7-7-7-7-|-10-7-7-10-7-7-10-7-|
G|-----------------|-----------------|-----------------|--------------------|
D|-----------------|-----------------|-----------------|--------------------|
A|-----------------|-----------------|-----------------|--------------------|
E|-----------------|-----------------|-----------------|--------------------|

e|-----------------|-----------------|-----------------|-----------------|
B|-8-8-8-8-8-8-8-8-|-8-8-8-8-8-8-8-8-|-----------------|-----------------|
G|-----------------|-----------------|-5-5-5-5-5-5-5-5-|-7-7-7-7-7-7-7-7-|
D|-----------------|-----------------|-----------------|-----------------|
A|-----------------|-----------------|-----------------|-----------------|
E|-----------------|-----------------|-----------------|-----------------|

[Outro]
e|-----------------|-----------------|-----------------|-8-8-8-7-7-7-------|
B|-8-8-8-8-8-8-8-8-|-8-8-8-8-8-8-8-8-|-7-7-7-7-7-7-7-7-|-------------10-10-|
G|-----------------|-----------------|-----------------|-------------------|
D|-----------------|-----------------|-----------------|-------------------|
A|-----------------|-----------------|-----------------|-------------------|
E|-----------------|-----------------|-----------------|-------------------|

e|-----------------|-----------------|-----------------|--------------------|
B|-8-8-8-8-8-8-8-8-|-8-8-8-8-8-8-8-8-|-7-7-7-7-7-7-7-7-|-10-7-7-10-7-7-10-7-|
G|-----------------|-----------------|-----------------|--------------------|
D|-----------------|-----------------|-----------------|--------------------|
A|-----------------|-----------------|-----------------|--------------------|
E|-----------------|-----------------|-----------------|--------------------|

e|-----------------|-----------------|-----------------|-8-8-8-7-7-7-------|
B|-8-8-8-8-8-8-8-8-|-8-8-8-8-8-8-8-8-|-7-7-7-7-7-7-7-7-|-------------10-10-|
G|-----------------|-----------------|-----------------|-------------------|
D|-----------------|-----------------|-----------------|-------------------|
A|-----------------|-----------------|-----------------|-------------------|
E|-----------------|-----------------|-----------------|-------------------|

e|-----------------|-----------------|-----------------|--------------------|
B|-8-8-8-8-8-8-8-8-|-8-8-8-8-8-8-8-8-|-7-7-7-7-7-7-7-7-|-10-7-7-10-7-7-10-7-|
G|-----------------|-----------------|-----------------|--------------------|
D|-----------------|-----------------|-----------------|--------------------|
A|-----------------|-----------------|-----------------|--------------------|
E|-----------------|-----------------|-----------------|--------------------|


e|-----------------|-----------------|-----------------|-8-8-8-7-7-7-10-10-|
B|-8-8-8-8-8-8-8-8-|-8-8-8-8-8-8-8-8-|-7-7-7-7-7-7-7-7-|-------------------|
G|-----------------|-----------------|-----------------|-------------------|
D|-----------------|-----------------|-----------------|-------------------|
A|-----------------|-----------------|-----------------|-------------------|
E|-----------------|-----------------|-----------------|-------------------|
  (Bend.....)

e|-----------------|-----------------|-----------------|-8-8-8-7-7-7-10-10-|
B|-8-8-8-8-8-8-8-8-|-8-8-8-8-8-8-8-8-|-7-7-7-7-7-7-7-7-|-------------------|
G|-----------------|-----------------|-----------------|-------------------|
D|-----------------|-----------------|-----------------|-------------------|
A|-----------------|-----------------|-----------------|-------------------|
E|-----------------|-----------------|-----------------|-------------------|

e|-7-7-7-7-7-7-7-7-|-7-7-7-7-7-7-7-7-|-10-10-10-10-10-10-10-10-|-8-8-8-7-7-7-------|
B|-----------------|-----------------|-------------------------|-------------10-10-|
G|-----------------|-----------------|-------------------------|-------------------|
D|-----------------|-----------------|-------------------------|-------------------|
A|-----------------|-----------------|-------------------------|-------------------|
E|-----------------|-----------------|-------------------------|-------------------|

 
*********************************** 
| \ Slide down 
| b Bend
| r Release
***********************************

            
            
Suggest correction
Creating personal tab
Creating personal tab
You can edit any tab online and save it as your Personal.

You can edit, replace or remove any tab part or add personal notes – all changes will be seen only by you.

Personal tabs can be accessed anytime from any device, even offline.
Learn more »
Give kudos to tab author, rate the tab!
1 2 3 4 5
comments
print report bad tab
2 comments total.
0 reply
NotARobot 10 Apr 08, 2017 06:58 AM

I think starting off with the 10th fret of A is better for the intro and as far as I can make out from their videos Trümmer is playing the 10th fret as well.

0 reply
Niiinkh 79 Apr 11, 2017 05:32 AM

Yeah, you're probably right. The whole intro seems to be played on the 5th string.

guest
You may want to rate the tab now too:
select rating
Wanna post a correction for this tab? Suggest correction