Oops, an error
Loading. Please wait.

Düsseldorf bass

by Teleman
58 views 3 this week
1 commentread comment
1 2 3 4 5
2 more votes to show rating
add to favorites
×
Save as Personal and add changes to this tab that will be seen only by you. Learn more ›
×
You can save this tab as Personal to edit and correct it or add notes. All changes will be seen only by you. Learn more »
launch autoscroll
font size
0
reset
guitar tuner
edit
Autoscroll
slow
fast
+/-
esc
set tempo
stop
Author
Difficulty
[Verse 1] 
(00:16)
G|---------------------------------|---------------------------------|
D|---------------------------------|----------------5---5---5---5--/-|
A|7---7---7---7---7---7---7---7----|5---5---5---5--------------------|
E|---------------------------------|---------------------------------|

G|---------------------------------|------------4---4---4---4---4----|
D|9---9---9---9--------------------|5---5---5------------------------|
A|----------------5---5---5---5----|---------------------------------|
E|---------------------------------|---------------------------------|

G|---------------------------------|---------------------------------|
D|---------------------------------|----------------5---5---5---5----|
A|7---7---7---7---7---7---7---7----|5---5---5---5--------------------|
E|---------------------------------|---------------------------------|

G|4---4---4---4--------------------|------------4---4---4---4---4----|
D|---------------------------------|5---5---5------------------------|
A|----------------5---5---5---5----|---------------------------------|
E|---------------------------------|---------------------------------|

G|---------------------------------|---------------------------------|
D|---------------------------------|---------------------------------|
A|---------------------------------|---------------------------------|
E|---------------------------------|---------------------------------|

G|---------------------------------|---------------------------------|
D|---------------------------------|----------------5---5---5---5--/-|
A|7---7---7---7---7---7---7---7----|5---5---5---5--------------------|
E|---------------------------------|---------------------------------|

G|---------------------------------|------------4---4---4---4---4----|
D|9---9---9---9--------------------|5---5---5------------------------|
A|----------------5---5---5---5----|---------------------------------|
E|---------------------------------|---------------------------------|

G|---------------------------------|---------------------------------|
D|---------------------------------|----------------5---5---5---5--/-|
A|7---7---7---7---7---7---7---7----|5---5---5---5--------------------|
E|---------------------------------|---------------------------------|

G|---------------------------------|------------4---4---4---4---4----|
D|9---9---9---9--------------------|5---5---5------------------------|
A|----------------5---5---5---5----|---------------------------------|
E|---------------------------------|---------------------------------|

[Chorus]
G|5-----------4--------------------|----------------5-----------5----|
D|----------------7----------------|5-----------5--------------------|
A|---------------------------------|---------------------------------|
E|---------------------------------|---------------------------------|

G|7-------7-------9----------------|5-----------4--------------------|
D|---------------------------------|----------------7----------------|
A|---------------------------------|---------------------------------|
E|---------------------------------|---------------------------------|

G|----------------5-----------5----|4-------7-------9----------------|
D|5-----------5--------------------|------------------------9--------|
A|---------------------------------|---------------------------------|
E|---------------------------------|---------------------------------|

G|---------------------------------|---------------------------------|
D|---------------------------------|---------------------------------|
A|3-----------2---0----------------|----------------3-----------3----|
E|---------------------------------|3-----------3--------------------|

G|---------------------------------|---------------------------------|
D|---------------------------------|---------------------------------|
A|5-------5-------7----------------|3-----------2---0----------------|
E|------------------------7--------|---------------------------------|

G|---------------------------------|---------------------------------|
D|---------------------------------|----------------2---2------------|
A|----------------3-----------3----|2-------2-------------------2----|
E|3-----------3--------------------|---------------------------------|

G|---------------------------------|---------------|
D|2---2-----------2---2------------|2---2----------|(*4 instead of 8)
A|------------2---------------2----|---------------|
E|---------------------------------|------------7--|

[Interlude]
G|---------------------------------|---------------------------------|
D|---------------------------------|---------------------------------|
A|7---7---7---7---7---7---7---7----|5---5---5---5-\------------------|
E|---------------------------------|----------------3---3---3---3----|

G|---------------------------------|---------------------------------|
D|---------------------------------|---------------------------------|
A|2---2---2---2-/-5---5---5---5-\--|----------------2---2---2---2-/--|
E|---------------------------------|3---3---3---3--------------------|

G|---------------------------------|---------------------------------|
D|---------------------------------|---------------------------------|
A|7---7---7---7---7---7---7---7----|5---5---5---5-\------------------|
E|---------------------------------|----------------3---3---3---3----|

G|---------------------------------|---------------------------------|
D|---------------------------------|---------------------------------|
A|2---2---2---2-/-5---5---5---5-\--|----------------2---2---2---2----|
E|---------------------------------|3---3---3---3--------------------|

[Verse 2]
G|---------------------------------|---------------------------------|
D|---------------------------------|---------------------------------|
A|---------------------------------|5---5---5---5-\------------------|
E|0---0---0---0---0---0---0---0----|----------------3---3---3---3----|

G|---------------------------------|---------------------------------|
D|---------------------------------|---------------------------------|
A|2---2---2---2-/-5---5---5---5----|------------2---2---2---2---2----|
E|---------------------------------|3---3---3------------------------|

G|---------------------------------|---------------------------------|
D|---------------------------------|---------------------------------|
A|------------------------2---2----|5---5---5---5-\------------------|
E|0---0---0---0---3---3------------|----------------3---3---3---3----|

G|---------------------------------|---------------------------------|
D|---------------------------------|---------------------------------|
A|2---2---2---2-/-5---5---5---5----|------------2---2---2---2---2----|
E|---------------------------------|3---3---3------------------------|

[Chorus]
G|---------------------------------|---------------------------------|
D|---------------------------------|---------------------------------|
A|3---3---3---2---0---0---0---0----|----------------3---3---3---3----|
E|---------------------------------|3---3---3---3--------------------|

G|---------------------------------|---------------------------------|
D|---------------------------------|---------------------------------|
A|5---5---5---5---7---7---7---7----|3---3---3---2---0---0---0---0----|
E|---------------------------------|---------------------------------|

G|---------------------------------|---------------------------------|
D|---------------------------------|---------------------------------|
A|----------------3---3---3---3----|5---5-----------7---7---7---7----|
E|3---3---3---3--------------------|--------7---7--------------------|

G|---------------------------------|---------------------------------|
D|---------------------------------|---------------------------------|
A|3---3---3---2---0---0---0---0----|----------------3---3---3---3----|
E|---------------------------------|3---3---3---3--------------------|

G|---------------------------------|---------------------------------|
D|---------------------------------|---------------------------------|
A|5---5---5---5---7---7---7---7----|3---3---3---2---0---0---0---0----|
E|---------------------------------|---------------------------------|

G|---------------------------------|---------------------------------|
D|---------------------------------|---------------------------------|
A|----------------3---3---3---3----|5---5---5---5---7---7---7---7----|
E|3---3---3---3--------------------|---------------------------------|

G|---------------------------------|---------------|
D|---------------------------------|---------------|
A|7---7---7---7---7---7---7---7----|7---7---7---7--|
E|---------------------------------|---------------|

[Solo]
G|---------------------------------|---------------------------------|
D|---------------------------------|----------------5---5---5---5----|
A|7---7---7---7---7---7---7---7----|5---5---5---5--------------------|
E|---------------------------------|---------------------------------|

G|4---4---4---4--------------------|----------------4---4---4---4----|
D|-------------------------------/-|5---5---5---5--------------------|
A|----------------5---5---5---5----|---------------------------------|
E|---------------------------------|---------------------------------|

G|---------------------------------|---------------------------------|
D|---------------------------------|----------------5---5---5---5--/-|
A|7---7---7---7---7---7---7---7-\--|5---5---5---5--------------------|
E|---------------------------------|---------------------------------|

G|---------------------------------|----------------4---4---4---4----|
D|9---9---9---9-\----------------/-|5---5---5---5--------------------|
A|----------------5---5---5---5----|---------------------------------|
E|---------------------------------|---------------------------------|

G|5---5---5---4--------------------|----------------5---5---5---5----|
D|----------------7---7---7---7----|5---5---5---5--------------------|
A|---------------------------------|---------------------------------|
E|---------------------------------|---------------------------------|

G|7---7---7---7---9---9---9---9----|5---5---5---4--------------------|
D|---------------------------------|----------------7---7---7---7----|
A|---------------------------------|---------------------------------|
E|---------------------------------|---------------------------------|

G|----------------5---5---5---5----|4---4---4---4-/-9---9---9---9----|
D|5---5---5---5--------------------|---------------------------------|
A|---------------------------------|---------------------------------|
E|---------------------------------|---------------------------------|

G|11--11--11--11--12--12--12--12-/-|16--16--16--16-|
D|---------------------------------|---------------|
A|---------------------------------|---------------|
E|---------------------------------|---------------|

G|---------------------------------|---------------------------------|
D|---------------------------------|---------------------------------|
A|---------------------------------|5-------5------------------------|
E|0-------0-------0-------0--------|----------------3-------3--------|

G|---------------------------------|---------------------------------|
D|---------------------------------|---------------------------------|
A|2---2---2---2---5-------5---\----|----------------2---2---2---2----|
E|---------------------------------|3-------3------------------------|

G|---------------------------------|---------------------------------|
D|---------------------------------|---------------------------------|
A|----------------------------2----|5-------5---\--------------------|
E|0-------0-------0-------3--------|----------------3-------3--------|

G|---------------------------------|---------------------------------|
D|---------------------------------|---------------------------------|
A|2---2---2---2---5-------5---\----|----------------2---2---2---2----|
E|---------------------------------|3-------3------------------------|

[Chorus]
G|---------------------------------|---------------------------------|
D|---------------------------------|---------------------------------|
A|3---3---3---2---0---0---0---0----|----------------3---3---3---3----|
E|---------------------------------|3---3---3---3--------------------|

G|---------------------------------|---------------------------------|
D|---------------------------------|---------------------------------|
A|5---5---5---5---7---7---7---7----|3---3---3---2---0---0---0---0----|
E|---------------------------------|---------------------------------|

G|---------------------------------|---------------------------------|
D|---------------------------------|---------------------------------|
A|----------------3---3---2---2----|5---5---5---5---7---7---7---7----|
E|3---3---3---3--------------------|---------------------------------|

G|---------------------------------|---------------------------------|
D|---------------------------------|---------------------------------|
A|3---3---3---2---0---0---0---0----|----------------3---3---3---3----|
E|---------------------------------|3---3---3---3--------------------|

G|---------------------------------|---------------------------------|
D|---------------------------------|---------------------------------|
A|5---5---5---5---7---7---7---7----|3---3---3---2---0---0---0---0----|
E|---------------------------------|---------------------------------|

G|---------------------------------|---------------------------------|
D|---------------------------------|---------------------------------|
A|----------------3---3---3---3----|5---5-----------7---7---7---7----|
E|3---3---3---3--------------------|--------7---7--------------------|

G|---------------------------------|---------------------------------|
D|---------------------------------|---------------------------------|
A|3---3---3---2---0---0---0---0----|----------------3---3---3---3----|
E|---------------------------------|3---3---3---3--------------------|

G|---------------------------------|---------------------------------|
D|---------------------------------|---------------------------------|
A|5---5---6---6---7---7---7---7----|3---3---3---2---0---0---0---0----|
E|---------------------------------|---------------------------------|

G|---------------------------------|---------------------------------|
D|---------------------------------|---------------------------------|
A|----------------3---3---3---3----|--------6---6---7---7---7---7----|
E|3---3---3---3--------------------|7---7----------------------------|

G|---------------------------------|---------------------------------|
D|---------------------------------|---------------------------------|
A|3---3---3---2---0---0---0---0----|----------------3---3---3---3----|
E|---------------------------------|3---3---3---3--------------------|

G|---------------------------------|---------------------------------|
D|---------------------------------|---------------------------------|
A|5---5---5---5---7---7---7---7----|3---3---3---2---0---0---0---0----|
E|---------------------------------|---------------------------------|

G|---------------------------------|---------------|
D|---------------------------------|---------------|
A|----------------3---3---3---3----|5---5---5---5--|
E|3---3---3---3--------------------|---------------|

[Outro]
G|---------------------------------|---------------------------------|
D|---------------------------------|---------------------------------|
A|---------------------------------|---------------------------------|
E|0---0---0---0---0---0---0---0----|0---0---0---0---0---0---0---0----|

G|---------------------------------|------------------|
D|---------------------------------|------------------|
A|---------------------------------|------------------|
E|0---0---0---0---0---0---0---0----|0---0---0---0---0-|



************************************

| /  Slide up
| \  Slide down

************************************

            
            
Suggest correction
Creating personal tab
Creating personal tab
You can edit any tab online and save it as your Personal.

You can edit, replace or remove any tab part or add personal notes – all changes will be seen only by you.

Personal tabs can be accessed anytime from any device, even offline.
Learn more »
Give kudos to tab author, rate the tab!
1 2 3 4 5
comments
print report bad tab
1 comment total.
+1 reply
alicorn 20 Jul 22, 2017 03:46 PM

One of my favourite Teleman songs. Excellent! Thankyou axelvignet!

guest
You may want to rate the tab now too:
select rating
Wanna post a correction for this tab? Suggest correction