Oops, an error
Loading. Please wait.

Старі Фотографії chords

85 views 6 this week
no commentswrite comment
1 2 3 4 5
2 more votes to show rating
add to favorites
×
Save as Personal and add changes to this tab that will be seen only by you. Learn more ›
×
You can save this tab as Personal to edit and correct it or add notes. All changes will be seen only by you. Learn more »
launch autoscroll
font size
0
reset
transpose
0
reset
display chords
guitar tuner
edit
Autoscroll
slow
fast
+/-
esc
set tempo
stop
Author
Difficulty
About this tab version
The first version of this song. Was this info helpful? Yes No
Strumming
There is no strumming pattern for this song yet. and get +5 IQ
Старі фотографії
Слова, музика та виконання: Скрябін

Акорди
Tab submitted by: Mykola Poberezhnyi
Email: mykola.poberezhnyi@gmail.com

[Intro]
  Dm       Bb      F      A         Dm     Bb           F       A
e|-0------------------------------3-0---1-------------------------------||
b|----3----------3-1------------2-----------3-----------1---3-----------||
g|-------2-----3------2---0---2-----------------0h2-0-2---------0---2---||
d|-----------3----------------------------------------------------------|| 
a|----------------------------------------------------------------------||
E|----------------------------------------------------------------------||

*****************
|(n)  ghost note
| h   hammer-on
| \   slide down
| #*#- If you wish, play the required fill here
*****************

*Протягом усіх КУПЛЕТІВ 2-га гітара може виконувати наступний Riff 1:

e|---------------------------------------|
b|-3\5-3-------3\5-3-1-(1)---------------|
g|-------2---2----------------0----------|
d|-0-------3----------------3---3-2------|  3x
a|----------------------------------3-0--|
E|----------------------1------------(1)-|

e|-----------------------------------------||
b|-3\5-3-------3\5-3-1-(1)-----------------||
g|-------2---2----------------0------------||
d|-0-------3----------------3---3-2--------||
a|----------------------------------3-3\5--||
E|----------------------1----------(1)-----||

*Протягом усіх ПРИСПІВІВ 2-га гітара може виконувати наступний Riff 2:

e|-\6---6-6-5-------------------0---------0-1-----------|
b|------------6-8-5-------2-------2-----3-----3---------|
g|----------------------2-----2-------2---------2-------|
d|--------------------2-------------0-------------0-----|
a|------------------0-----------------------------------|            |
E|--------------------------------------------------6---|            |
                                                                     |2x
e|-\6---6-6-5-------------------5-----------5-------------||         | 
b|------------6-8---------5-------5-------6---6-----------||         |
g|----------------------6-----6---------7-------7---------||
d|--------------------7---------------7-----------7-------||
a|----------------------------------5---------------------||
E|------------------5-------------------------------#6#---||

[Verse 1]

(The 2d guitar plays Riff 1)

Dm                Bb            F
  Здається, що то було так давно,
                 A            Dm
Коли в руках тримаю цей альбом
             Bb             F
Нам було абсолютно все одно
            A            Dm
Не маючи нічого мати всьо,
               Bb          F
За гроші не купити тільки час,
                  A            Dm
Він всіх нас методично поділив,
               Bb              F
Когось він опустив, когось підняв,
              A
А є на кого взагалі забив.

[Chorus]

(The 2d guitar plays Riff 2)

Bb            F         A        Dm
  Старі фотографії на стіл розклади,
Bb          F       A         Dm 
  Дитячі історії смішні розкажи
Bb             F          A           Dm
  І справжнім друзям не забудь, подзвони
Bb            F            A         Dm
  Бо добре чи зле, з тобою завжди вони

[Verse 2]

Dm            Bb        F
  Дешеве пиво і сухе вино,
               A            Dm
Робили нас щасливими людьми,
             Bb             F
І ніби чудо польське радіо,
                A            Dm
Нам відкривало той незнаний світ
                 Bb          F
Ми жили всі так, ніби то був сон
              A            Dm
І можна бути вічно молодим,
             Bb              F
А залишився тільки цей альбом,
              A
А мрії розлетілися, як дим.

[Chorus]

Bb            F         A        Dm
  Старі фотографії на стіл розклади,
Bb          F       A         Dm 
  Дитячі історії смішні розкажи
Bb             F          A           Dm
  І справжнім друзям не забудь, подзвони
Bb            F            A         Dm
  Бо добре чи зле, з тобою завжди вони

[Verse 3]

Dm              Bb        F
  Ми грали примітивну музику,
                  A            Dm
Так чесно, що пробила би до сліз
             Bb             F
Чекали, що прийде такий момент
                A            Dm
Коли під ноги впаде цілий світ
                 Bb          F
Годинник вперто роки рахував,
                A            Dm
І кожен так як міг так і зробив
             Bb              F
І тільки у альбомі всі підряд
             A
Ми будемо такими, як тоді

N.C.

e|-------1-------1-||
b|-----3-------3---||
g|---2-------2-----||
d|-0-------3-------||
a|-----------------||
E|-----------------||

[Chorus]   2x

Bb            F         A        Dm
  Старі фотографії на стіл розклади,
Bb          F       A         Dm 
  Дитячі історії смішні розкажи
Bb             F          A           Dm
  І справжнім друзям не забудь, подзвони
Bb            F            A         Dm
  Бо добре чи зле, з тобою завжди вони

            
            
Suggest correction
Creating personal tab
Creating personal tab
You can edit any tab online and save it as your Personal.

You can edit, replace or remove any tab part or add personal notes – all changes will be seen only by you.

Personal tabs can be accessed anytime from any device, even offline.
Learn more »
Give kudos to tab author, rate the tab!
1 2 3 4 5
comments
print report bad tab
guest
You may want to rate the tab now too:
select rating
Wanna post a correction for this tab? Suggest correction