Oops, an error
Loading. Please wait.

Disolviendonos chords

37 views 1 this week
no commentswrite comment
1 2 3 4 5
3 more votes to show rating
add to favorites
×
Save as Personal and add changes to this tab that will be seen only by you. Learn more ›
×
You can save this tab as Personal to edit and correct it or add notes. All changes will be seen only by you. Learn more »
launch autoscroll
font size
0
reset
transpose
0
reset
simplify chords
display chords
guitar tuner
edit
Autoscroll
slow
fast
+/-
esc
set tempo
stop
Author
Difficulty
About this tab version
First tabbed, match perfectly with original song, watch out to the tab, is not aligned because the voice starts first, then arpegios, acoustic version sounds great, check demo cover. Was this info helpful? Yes No
Strumming
There is no strumming pattern for this song yet. and get +5 IQ
Rola sacada por Edgar Chez 04/04/2017
Demo Cover: https://youtu.be/oLqilOlTWs4
Tutorial:  https://youtu.be/xfxkzYVODT8

Visita y suscribete a mi canal! canciones nuevas antes que nadie cada semana!
Esta rola está sacada nota por nota, les quedará perfecta ,la tablatura no está
chueca, es que la nota empieza hasta ese momento de la letra

Standard Tunning EADGBe
No Capo

[Chords]
D: XX0232
Dm(Maj7): XX0221

[Intro]
      D                D                 Dm(Maj7)          Dm(Maj7)            
e|------2--7--2-----|------2--7--2----|------1--7--1----|------1--7--1----|
B|----3---------3---|----3---------3--|----2---------2--|----2---------2--|
G|--2---------------|--2--------------|--2--------------|--2--------------|
D|------------------|-----------------|-----------------|-----------------|
A|------------------|-----------------|-----------------|-----------------|
E|------------------|-----------------|-----------------|-----------------|

    D                  D                Dm(Maj7)                      
e|------2--7--2----|------2--7--2----|------1--7--1----|----12-|
B|----3---------3--|----3---------3--|----2---------2--|-------|
G|--2--------------|--2--------------|--2--------------|-------|
D|-----------------|-----------------|-----------------|-------|
A|-----------------|-----------------|-----------------|-------|
E|-----------------|-----------------|-----------------|-------|

[Verse]
        D                 D                  Dm(Maj7)         Dm(Maj7)            
Se desvaneeeeeeeeeeeece    Toooooooooooodo                      Todooo   El tiempo
    e|------2--7--2----|------2--7--2----|------1--7--1----|------1--7--1----|
    B|----3---------3--|----3---------3--|----2---------2--|----2---------2--|
    G|--2--------------|--2--------------|--2--------------|--2--------------|
    D|-----------------|-----------------|-----------------|-----------------|
    A|-----------------|-----------------|-----------------|-----------------|
    E|-----------------|-----------------|-----------------|-----------------|

    D                 D                  Dm(Maj7)                      
   oooooooooooooooooh  
e|------2--7--2----|------2--7--2-----|------1--7--1-----|----12-|
B|----3---------3--|----3---------3---|----2---------2---|-------|
G|--2--------------|--2-------------2-|--2-------------2-|-------|
D|-----------------|------------------|------------------|-------|
A|-----------------|------------------|------------------|-------|
E|-----------------|------------------|------------------|-------|

[Verse]
        D                 D                 Dm(Maj7)           Dm(Maj7)            
Se disueeeeeeeeelve  y se pieeeeeeerrdeee                      Como  un sueñooo
    e|------2--7--2----|------2--7--2----|------1--7--1----|------1--7--1----|
    B|----3---------3--|----3---------3--|----2---------2--|----2---------2--|
    G|--2--------------|--2--------------|--2--------------|--2--------------|
    D|-----------------|-----------------|-----------------|-----------------|
    A|-----------------|-----------------|-----------------|-----------------|
    E|-----------------|-----------------|-----------------|-----------------|

    D                  D                  Dm(Maj7)                      
   oooooooooooooooooooooooooooooooooh  
e|------2--7--2----|------2--7--2----|------1--7--1----|
B|----3---------3--|----3---------3--|----2---------2--|
G|--2--------------|--2--------------|--2--------------|
D|-----------------|-----------------|-----------------|
A|-----------------|-----------------|-----------------|
E|-----------------|-----------------|-----------------|

[Verse]
  Queeeeeeeeee   aabsuuuuurdooooo   peensaaaaaarrr   que no   sucederáaa-
e|------0--4--0----|-------0--4--0---|-------3--7--3---|---------3--7-3----|
B|----2---------2--|-----2---------2-|----3----------3-|-----3----------3--|
G|--2--------------|--2--------------|-0---------------|-0-----------------|
D|-----------------|-----------------|-----------------|-------------------|
A|-----------------|-----------------|-----------------|-------------------|
E|-----------------|-----------------|-----------------|-------------------|

    D
  -aaaaaaaaa                       con lo nuestrooooooo
e|------2--5--2-----|------2--5--2----|-------4--5--4----|-------4--5--4---|
B|----3---------3---|----3---------3--|---------------6--|---------------6-|
G|--2---------------|--2--------------|-----6------------|-----6-----------|
D|------------------|-----------------|---6--------------|---6-------------|
A|------------------|-----------------|------------------|-----------------|
E|------------------|-----------------|------------------|-----------------|

                                        Dm(Maj7)                      
   iiiiiiiiiiiiiilluuusorioo       peensaaaaaaaaaaarrrr   sobrevivirá-
e|------0--4--0----|------0--4--0----|------3--7--3-----|------3--7--3---|
B|----2---------2--|----2---------2--|----3----------3--|----3---------3-|
G|--2--------------|--2--------------|--0---------------|--0-------------|
D|-----------------|-----------------|------------------|----------------|
A|-----------------|-----------------|------------------|----------------|
E|-----------------|-----------------|------------------|----------------|

    D
  -aaaaaaaaa                             
e|------2--5--2-----|------2--5--2----|
B|----3---------3---|----3---------3--|
G|--2---------------|--2--------------|
D|------------------|-----------------|
A|------------------|-----------------|
E|------------------|-----------------|

       E   E   E  
Al Campo...Al Campo

[Bridge]
D Dsus2 D Dsus2 
A Asus2 A Asus2 
D Dsus2 D Dsus2 
A Asus2 A Asus2 

[Chorus]
      D                A  Asus2
Todo gira y da vueltaaaas 
A           D Dsus2 D Dsus2 A Asus2 A Asus2
en suspenso 
      D                A  Asus2
se recrea apareeeeeenteeeee a... 
A           D Dsus2 D Dsus2 A Asus2 A Asus2
a cada momento 

[Chorus]
A                 G
Puedes imputar obviar
            D            C#5 
nuestra ansiedad, el misterio
 D                 G                  D
puedes intentar tapar con un dedo el sol
         E    E   E       E 
y la existencia, y la existencia

[Outro]
A5 B5 G5
A5 B5 G5 

            
            
Suggest correction
Creating personal tab
Creating personal tab
You can edit any tab online and save it as your Personal.

You can edit, replace or remove any tab part or add personal notes – all changes will be seen only by you.

Personal tabs can be accessed anytime from any device, even offline.
Learn more »
Give kudos to tab author, rate the tab!
1 2 3 4 5
comments
print report bad tab
guest
You may want to rate the tab now too:
select rating
Wanna post a correction for this tab? Suggest correction