Oops, an error
Loading. Please wait.

Slow Love Live tab

by
157 views 6 this week
no commentswrite comment
1 2 3 4 5
3 more votes to show rating
add to favorites
×
Save as Personal and add changes to this tab that will be seen only by you. Learn more ›
×
You can save this tab as Personal to edit and correct it or add notes. All changes will be seen only by you. Learn more »
launch autoscroll
font size
0
reset
how to read this tab
guitar tuner
edit
Autoscroll
slow
fast
+/-
esc
set tempo
stop
Author
Difficulty
MØ - Slow Love - Vevo The Great Escape

[Intro]
some mute strumming then..

e|-------------------------------|
B|-------------------------------|
G|--12-12-x-12-12-x-x-10-10-10---|
D|--12-12-x-12-12-x-x-10-10-10---|
A|-------------------------------|
E|-------------------------------|

mute strumming again and start..

e|-----------------------------|------10\-----------------------------------------|
B|-----------------------------|-11---11\-----10-----------8---x------------10----|
G|--12-12-x-12-12-x-x-10-10-10-|-12---12\-----10---8-----8-8---x--10-----10-10----|
D|--12-12-x-12-12-x-x-10-10-10-|-12---12\-----10---8---8---8---x--10---10---10----|
A|-----------------------------|-10---10\-----8----6-6---------x--8--8------------|
E|-----------------------------|--------------------------------------------------|

e|---------10\---------------------------------------|
B|----11---11\---10-----------8---x------------10----|
G|----12---12\---10---8-----8-8---x--10-----10-10----|
D|----12---12\---10---8---8---8---x--10---10---10----|
A|----10---10\---8----6-6---------x--8--8------------|
E|---------------------------------------------------|

[Verse] 
                                   P.M*
e|----------------------------------------|---------------------------------------|
B|--------------------------------------8-|---------------------------------------|
G|----3--------3------3--------3-----7*---|---3--------3--------3-------5/7-5p3---|
D|--5----3-3-5----3-5----3-3-x------------|-5----3-3-5----3-3-5-----3h5---------5-|
A|----------------------------------------|---------------------------------------|
E|----------------------------------------|---------------------------------------|

I need to get out
Please show me your town at night
Collide this seaming sky with your firework
Gonna have some fun and maybe
I'm gonna let you hold me for a while
You said girl you drive me crazy
Come with me to a place where the music plays

[Bridge]
    G     G*  A   F   D   
e|--------------------------|
B|--------------------------|
G|--------------------------|
D|--------------------------|
A|--------------------------|
E|--3-----3/--5---1---10----|

 G                       G*          A                      G       G*   A   D 
Let me love you all night long to a slow beat singing our song  uuh uh
 G                       G*          A                        G
Let me love you all night long 'til the birds tweet singing along  uuh uh

[Chorus]
e|-------------------------------|
B|-------------------------------|
G|--12-12-x-12-12-x-x-10-10-10---|
D|--12-12-x-12-12-x-x-10-10-10---|
A|-------------------------------|
E|-------------------------------|

      G      F    Eb  
e|--------------------|
B|----11-----10---8---|
G|----12-----10---8---|
D|----12-----10---8---|
A|----10-----8----6---|
E|--------------------|

 G                        F
Why is your rhythm always making me high?
     Eb                            F
It's harder to resist you, you get stuck in my mind
 G                          F
Why does your rhythm always make me go far?
 Eb                                   F    
Why should it start when you're right here by my side?

[Verse 2]
                                   P.M*
e|----------------------------------------|---------------------------------------|
B|--------------------------------------8-|---------------------------------------|
G|----3--------3------3--------3-----7*---|---3--------3--------3-------5/7-5p3---|
D|--5----3-3-5----3-5----3-3-x------------|-5----3-3-5----3-3-5-----3h5---------5-|
A|----------------------------------------|---------------------------------------|
E|----------------------------------------|---------------------------------------|

  [Fill]
e|------------------10------------------|
B|------11----11-13----13-10-13-10------|
G|---12----12----------------------12---|
D|--------------------------------------|
A|--------------------------------------|
E|--------------------------------------|

We walk through the crowd

I can walk for hours with your hand in mine
                                             [Fill]
Collide this starry night with your fireworks

Gonna dance all night and maybe

I'm gonna tell you how I've been feeling lately

Boy you make me wild and crazy

Take me home, take me home
           [Fill]
While the time is right

[Bridge]
    G     G*  A   F   D    
e|--------------------------|
B|--------------------------|
G|--------------------------|
D|--------------------------|
A|--------------------------|
E|--3-----3/--5---1---10----|


 G                       G*          A                      G       G*   A   D 
Let me love you all night long to a slow beat singing our song  uuh uh
 G                       G*          A                        G
Let me love you all night long 'til the birds tweet singing along  uuh uh

[Chorus]
e|-------------------------------|
B|-------------------------------|
G|--12-12-x-12-12-x-x-10-10-10---|
D|--12-12-x-12-12-x-x-10-10-10---|
A|-------------------------------|
E|-------------------------------|

      G      F    Eb  
e|--------------------|
B|----11-----10---8---|
G|----12-----10---8---|
D|----12-----10---8---|
A|----10-----8----6---|
E|--------------------|

 G                        F
Why is your rhythm always making me high?
     Eb                            F
It's harder to resist you, you get stuck in my mind
 G                          F
Why does your rhythm always make me go far?
 Eb                                   F    
Why should it start when you're right here by my side?

[Outro]
N.C
Let me love you all night long to a slow beat singing our song
N.C
Let me love you all night long 'til the word spreads singing along
N.C
Again and again, again and again and again

*********************************** 

| h Hammer-on 
| x Dead note 
| \ Slide-down
| / Slide-up 
| p Pull-off

***********************************

            
            
Suggest correction
Creating personal tab
Creating personal tab
You can edit any tab online and save it as your Personal.

You can edit, replace or remove any tab part or add personal notes – all changes will be seen only by you.

Personal tabs can be accessed anytime from any device, even offline.
Learn more »
Give kudos to tab author, rate the tab!
1 2 3 4 5
comments
print report bad tab
guest
You may want to rate the tab now too:
select rating
Wanna post a correction for this tab? Suggest correction