Oops, an error
Loading. Please wait.

The Old Gods Return drums

82 views 1 this week
no commentswrite comment
1 2 3 4 5
3 more votes to show rating
add to favorites
×
Save as Personal and add changes to this tab that will be seen only by you. Learn more ›
×
You can save this tab as Personal to edit and correct it or add notes. All changes will be seen only by you. Learn more »
launch autoscroll
font size
0
reset
guitar tuner
edit
Autoscroll
slow
fast
+/-
esc
set tempo
stop
Author
Difficulty
C: CRASH
HH: HI-HAT
R: RIDE
S: SNARE
T: TOMS (1=RACK TOM, 2=FLOOR TOM #1, 3=FLOOR TOM #2)
BD: BASS DRUM

C |----------------|X---------------|X---------------|X---------------|X---------------|
HH|----------------|--X-X-O-X-X-X-X-|--X-X-O-X-X-X-X-|--X-X-O-X-X-X-X-|--X-X-O-X-X-X---|
S |------------O-OO|----O-------O---|----O-------O---|----O-------O---|----O----O--O-OO|
T |----------------|----------------|----------------|----------------|----------------|
BD|----------------|O--O--O---O-----|O--O--O---O-----|O--O--O---O-----|O--O--O-O--O-o--|

C |X---------------|X---------------|X---------------|X---------------|
R |----X---X---X---|----X---X---X---|----X---X---X---|----X-----------|
S |----O-------O---|----O-------O---|----O-------O---|----O---OO------|
T |----------------|----------------|----------------|----------1-2-3-|
BD|O--O--O---O-----|O--O--O---O-----|O--O--O---O-----|O--O--O-O---O---|

C |X---------------|----------------|----------------|----------------|
HH|----------------|----------------|----------------|----------------|
S |----------------|----------------|----------------|----------------|
T |----------------|----------------|----------------|-------11-2-2-3-|
BD|0---------------|----------------|----------------|----------------|

C |X---------------|----------------|------------XXXX|XXXXXXXXXXXXXXXX|
HH|----------------|----------------|----------------|----------------|
S |----------------|----------------|----------------|----------------|
T |----------------|----------------|----------------|----------------|
BD|0---------------|----------------|----------------|----------------| 

C |X---------------|----------------|----------------|----------------|
HH|----------------|----------------|----------------|----------------|
S |----------------|----------------|----------------|----------------|
T |----------------|----------------|----------------|----------------|
BD|O---------------|----------------|----------------|----------------|

C |X---------------|----------------|----------------|----------------|
HH|----------------|----------------|----------------|----------------|
S |----------------|----------------|----------------|----------------|
T |----------------|----------------|----------------|----------------|
BD|O---------------|----------------|----------------|----------------|

C |X---------------|----------------|----------------|------------X---|
HH|----------------|----------------|----------------|----------------|
S |----------------|----------------|----------------|----------------|
T |3-3-3-3-3-3-3-3-|3-3-3-3-3-3-3-3-|3-3-3-3-3-3-3-3-|3-3-3-3-3-3-----|
BD|0---0---0---0---|O---O---O---O---|O---O---O---O---|O-O-O-O-O-O-O---|

C |X---------------|X---------------|X---------------|X---------------|
HH|--X-X-O-X-X-X-X-|--X-X-O-X-X-X-X-|--X-X-O-X-X-X-X-|--X-X-O---------|
S |----O-------O---|----O-------O---|----O-------O---|----O---OO--O-OO|
T |----------------|----------------|----------------|----------2-----|
BD|O--O--O---O-----|O--O--O---O-----|O--O--O---O-----|O--O--O-O---O---|

C |X---------------|X---------------|X---------------|X---------------|
R |--X-X-X-X-X-X-X-|--X-X-X-X-X-X-X-|--X-X-X-X-X-X-X-|--X-X-X-X-X-X-X-|
S |----O-------O---|----O-------O---|----O-------O---|----O-------O---|
T |----------------|----------------|----------------|----------------|
BD|O-------O-O---O-|O-------O-O---O-|O-------O-O---O-|O-------O-O---O-|

C |X---------------|X---------------|X---------------|X---------------|
R |--X-X-X-X-X-X-X-|--X-X-X-X-X-X-X-|--X-X-X-X-X-X-X-|--X-X-X-X-X-X---|
S |----O-------O---|----O-------O---|----O-------O---|----O-------O-OO|
T |----------------|----------------|----------------|----------------|
BD|O-------O-O---O-|O-------O-O---O-|O-------O-O---O-|O-------O-O-----|

C |X---------------|X---------------|X---------------|X---------------|
HH|--X-X-O-X-X-X-X-|--X-X-O---------|--X-X-O-X-X-X-X-|--X-X-O---------|
S |----O-------O---|----O---OO------|----O-------O---|----O---OO--O-OO|
T |----------------|----------------|----------------|----------2-----|
BD|O--O--O---O-----|O--O--O---O--O--|O--O--O---O-----|O--O--O-O---O---|

C |X---------------|X---------------|X---------------|X---------------|
HH|--X-X-O-X-X-X-X-|--X-X-O-X-X-X-X-|--X-X-O-X-X-X-X-|--X-X-O-X-X-X---|
S |----O-------O---|----O-------O---|----O-------O---|----O-------O-OO|
T |----------------|----------------|----------------|----------------|
BD|O--O--O---O-----|O--O--O---O-----|O--O--O---O-----|O--O--O---O-----|

C |X---------------|X-----------X---|X---------------|X---------------|
R |----X---X---X---|----X---X-------|----X---X---X---|----X-----------|
S |----O-------O---|----O-------O---|----O-------O---|----O---OO--O-OO|
T |----------------|----------------|----------------|----------2-----|
BD|O--O--O---O-----|O--O--O---O-----|O--O--O---O-----|O--O--O-O---O---|

C |X---------------|X---------------|X-X---X---X---X-|----------------|
R |----X---X---X---|----X---X---X---|----------------|----------------|
S |--------O-------|----O-------O-OO|----O-------O---|---------O------|
T |----------------|----------------|----------------|-----------2233-|
BD|O--O--O----O--O-|O--O--O----O--O-|O-O---O---O---O-|----------------|

C |X---------------|----------------|----------------|----------------|
HH|----------------|----------------|----------------|----------------|
S |----------------|----------------|----------------|-111-2-2-22-3-3-|
T |----------------|----------------|----------------|----------------|
BD|O---------------|----------------|----------------|----------------|

C |X---------------|----------------|----------------|----------------|
HH|----------------|----------------|----------------|----------------|
S |----------------|----------------|----------------|----------------|
T |----------------|----------------|----------------|------------3-3-|
BD|O---------------|----------------|----------------|----------------|

C |X---------------|----------------|----------------|----------------|
HH|----------------|----------------|----------------|----------------|
S |----------------|----------------|----------------|----------------|
T |----------------|----------------|----------------|----------------|
BD|O---------------|----------------|----------------|----------------|

C |X---------------|----------------|----------------|------------X---|
HH|----------------|----------------|----------------|----------------|
S |----------------|----------------|----------------|------------O---|
T |3-3-3-3-3-3-3-3-|3-3-3-3-3-3-3-3-|3-3-3-3-3-3-3-3-|3-3-3-3-3-3-----|
BD|0---0---0---0---|O---O---O---O---|O---O---O---O---|O-O-O-O-O-O-O---|

C |X---------------|X---------------|X---------------|X---------------|
HH|--X-X-O-X-X-X-X-|--X-X-O-X-X-X-X-|--X-X-O-X-X-X-X-|--X-X-O-X-X-X-X-|
S |----O-------O---|----O-------O---|----O-------O---|----O----O--O-OO|
T |----------------|----------------|----------------|----------------|
BD|O--O--O---O-----|O--O--O---O-----|O--O--O---O-----|O--O--O-O--O-O--|

C |X---------------|X---------------|X---------------|X---------------|
HH|--X-X-O-X-X-X-X-|--X-X-O-X-X-X-X-|--X-X-O-X-X-X-X-|--X-X-O---------|
S |----O-------O---|----O-------O---|----O-------O---|----O---O-O-O-OO|
T |----------------|----------------|----------------|----------------|
BD|O--O--O---O-----|O--O--O---O-----|O--O--O---O-----|O--O--O-O---O---|

C |X---------------|X---------------|X---------------|X---------------|
R |--X-X-X-X-X-X-X-|--X-X-X-X-X-X-X-|--X-X-X-X-X-X-X-|--X-X-X-X-X-X-X-|
S |----O-------O---|----O-------O---|----O-------O---|----O-------O---|
T |----------------|----------------|----------------|----------------|
BD|O-------O-O---O-|O-------O-O---O-|O-------O-O---O-|O-------O-O---O-|

C |X---------------|X---------------|X---------------|X---------------|
R |--X-X-X-X-X-X-X-|--X-X-X-X-X-X-X-|--X-X-X-X-X-X-X-|--X-X-X-X-X-X-X-|
S |----O-------O---|----O-------O---|----O-------O---|----O-------O---|
T |----------------|----------------|----------------|----------------|
BD|O-------O-O---O-|O-------O-O---O-|O-------O-O---O-|O-------O-O-----|

C |X---------------|X--X--X---------|X---------------|X--X--X---------|
HH|----------------|----------------|----------------|------------O---|
S |----------------|--------OOOOOOOO|----------------|------------O-OO|
T |----------------|----------------|----------------|----------------|
BD|O---------------|O--O--O---------|O---------------|O--O--O---------|

C |X---------------|X---------------|X---------------|X---------------|
HH|--X-X-O-X-X-X-X-|--X-X-O-X-X-X-X-|--X-X-O-X-X-X-X-|--X-X-O---------|
S |----O-------O---|----O-------O---|----O-------O---|----O--OO-O-O-OO|
T |----------------|----------------|----------------|----------------|
BD|O--O--O---O-----|O--O--O---O-----|O--O--O---O-----|O--O--OO----O---|

C |X---------------|X---------------|X-X---X---X---X-|----------------|
R |----X---X---X---|----X---X-------|----------------|----------------|
S |--------O-------|----O---O-OOOOOO|----O-------O---|O---O-O---O-----|
T |----------------|----------------|----------------|-123-1-123-12233|
BD|O--O--O----O--O-|O--O--O---------|O-O---O---O---O-|O---O-O---O-O-O-|

C |X-X---X---X---X-|----------------|
R |----------------|X-X-X-X-X-X-X-X-|
S |----O-------O---|----O-------O---|
T |----------------|----------------|
BD|O-O---O---O---O-|OOOOOOOOOOOOOOOO|

C |X---------------|----------------|X---------------|----------------|
HH|--X-X-X-X-X-X-X-|X-X-X-O-X-X-X-X-|--X-X-X-X-X-X-O-|X-X-X-X-X-X-X-O-|
S |--------O-------|--------O-------|--------O-------|--------O-------|
T |----------------|----------------|----------------|----------------|
BD|O--O--O----O--O-|O--O--O----O--O-|O--O--O----O--O-|O--O--O----O--O-|

C |X---------------|X---------------|X---------------|X---------------|
HH|--X-X-X-X-X-X-O-|--X-X-X-X-X-X-O-|--X-X-X-X-X-X-O-|--X-X-X-X-X-X-X-|
S |--------O-------|--------O-------|--------O-------|--------O---O--O|
T |----------------|----------------|----------------|----------------|
BD|O--O--O----O--O-|O--O--O----O--O-|O--O--O----O--O-|O--O--O----O----|

C |X---------------|X---------------|X---------------|X---------------|
HH|--X-X-O-X-X-X-X-|--X-X-O-X-X-X-X-|--X-X-O-X-X-X-X-|--X-X-O-X-X-X---|
S |----O-------O---|----O-------O---|----O-------O---|----O----O--O-OO|
T |----------------|----------------|----------------|----------------|
BD|O--O--O---O-----|O--O--O---O-----|O--O--O---O-----|O--O--O----O-O--|

C |X---------------|X---------------|X---------------|X---------------|
HH|--X-X-O-X-X-X-X-|--X-X-O-X-X-X-X-|--X-X-X-X-X-X-X-|--X-X-X---------|
S |----O-------O---|----O-------O---|--------O-------|--------O-O-O-OO|
T |----------------|----------------|----------------|----------------|
BD|O--O--O---O-----|O--O--O---O-----|O--O--O----O--O-|O--O--O---------|

C |X---------------|X---------------|X---------------|X---------------|
R |--X-X-X-X-X-X-X-|--X-X-X-X-X-X-X-|--X-X-X-X-X-X-X-|--X-X-X-X-X-X-X-|
S |----O-------O---|----O-------O---|----O-------O---|----O-------O---|
T |----------------|----------------|----------------|----------------|
BD|O-------O-O---O-|O-------O-O---O-|O-------O-O---O-|O-------O-O---O-|

C |X---------------|X---------------|X---------------|X---------------|
R |--X-X-X-X-X-X-X-|--X-X-X-X-X-X-X-|--X-X-X-X-X-X-X-|--X-X-X-X-X-----|
S |----O-------O---|----O-------O---|----O-------O---|----O-------O---|
T |----------------|----------------|----------------|----------------|
BD|O-------O-O---O-|O-------O-O---O-|O-------O-O---O-|O-------O-O--O--|

C |X---------------|X--X--X---------|X---------------|X--X--X---------|
HH|----------------|----------------|----------------|------------O---|
S |----------------|--------OOOOOOOO|----------------|------------O-OO|
T |----------------|----------------|----------------|----------------|
BD|O---------------|O--O--O---------|O---------------|O--O--O---O-----|

C |X---------------|X---------------|X---------------|X---------------|
HH|--X-X-O-X-X-X-X-|--X-X-O---------|--X-X-O-X-X-X-X-|--X-X-O---------|
S |----O-------O---|----O---OO--O-OO|----O-------O---|----O---OOOO----|
T |----------------|----------22----|----------------|------------1122|
BD|O--O--O---O-----|O--O--O-O---O---|O--O--O---O-----|O--O--O---------|

C |X---------------|X---------------|X---------------|X--X--X---------|
HH|--X-X-O-X-X-X-X-|--X-X-O-X-X-X-X-|--X-X-O-X-O-----|----------------|
S |----O-------O---|----O----O--O---|----O-------OOOO|--------O---OOOO|
T |----------------|----------------|----------------|----------------|
BD|O--O--O---O-----|O--O--O---OO----|O--O--O---O-----|O--O--O---O-----|

C |X--X--X---------||
HH|----------------||
S |----------------||
T |----------------||
BD|O--O--O---------||

            
            
Suggest correction
Creating personal tab
Creating personal tab
You can edit any tab online and save it as your Personal.

You can edit, replace or remove any tab part or add personal notes – all changes will be seen only by you.

Personal tabs can be accessed anytime from any device, even offline.
Learn more »
Give kudos to tab author, rate the tab!
1 2 3 4 5
comments
print report bad tab
guest
You may want to rate the tab now too:
select rating
Wanna post a correction for this tab? Suggest correction