Oops, an error
Loading. Please wait.

K氏のロックン・ロール bass

52 views 1 this week
no commentswrite comment
1 2 3 4 5
3 more votes to show rating
add to favorites
×
Save as Personal and add changes to this tab that will be seen only by you. Learn more ›
×
You can save this tab as Personal to edit and correct it or add notes. All changes will be seen only by you. Learn more »
launch autoscroll
font size
0
reset
guitar tuner
edit
Autoscroll
slow
fast
+/-
esc
set tempo
stop
Author
Difficulty
[Intro]
G|----------------|----------------|----------------|----------------|
D|----------------|----------------|----------------|----------------|
A|----------------|-----5-5-4-2----|----------------|-----5-5-4-2----|
E|-0-0-0-0-0-0-0-0|-0-0---------3-4|-0-0-0-0-0-0-0-0|-0-0---------3-4|

G|----------------|----------------|----------------|--------------|
D|----------------|----------------|----------------|--------------|
A|----------------|-----5-5-4-2----|---------------2|--2-2-2--2-2-2|
E|-0-0-0-0-0-0-0-0|-0-0---------3-4|-0-0-0-0-0-0-0--|--------------|

[Verse 1]
G|----------------|----------------|----------------|----------------|
D|----------------|----------------|----------------|----------------|
A|----------------|----------------|----------------|----------------|
E|-0-0-0-0-0-0-0-0|-0-0-0-0-0-0-0-0|-0-0-0-0-0-0-0-0|-0-0-0-0-0-0-0-5|

G|----------------|----------------|----------------|----------------|
D|----------------|----------------|----------------|----------------|
A|----------------|----------------|----------------|----------------|
E|-5-5-5-5-5-5-5-5|-5-5-5-5-5-5-5-5|-0-0-0-0-0-0-0-0|-0-0-0-0-0-0-0-0|

G|----------------|----------------|----------------|---------------|
D|----------------|---------------2|----------------|---------------|
A|-2-2-2-2-2-2-2-2|-2-2-2-2-2-2-4--|----------------|--2-2-2-2-2-2-2|
E|----------------|----------------|-0-0-0-0-0-0-0-0|---------------|

[Chorus]
G|----------------|----------------|----------------|----------------|
D|----------------|---------5-5-4--|---------6-6----|---------5-5-4--|
A|-------2-5-5-4-2|-----4-7-------7|-4-4-6-7-----7-4|-----4-7-------7|
E|-0-0-4----------|-5-5------------|----------------|-5-5------------|

G|----------------|----------------|----------------|
D|----------------|---5-2----------|----------------|
A|-7-7-4-4--------|-3-----3-5-2-0--|---------------7|
E|---------7-7-4-7|---------------2|-0-0-0-0-0-0-0--|

G|----------------------|-----------------------|----------------------|
D|----------------------|-----------------------|----------------------|
A|----------------------|-3---------------------|-3--------------------|
E|-8---x-0---1----1-3---|-----x-0---1----1-3--3-|-----x-0---1----1-3---|

G|---------------------|-----------|-----------------|
D|---------------------|-----------|-----------------|
A|---------------------|-----------|-----------------|
E|-5----3----1----1--3-|--5-5-5--3-|-1--1-1-1-3-3-3-3|

[Interlude]
G|----------------|-----3---2------|----------------|--------------|
D|----------------|-------------1-2|----------------|--------------|
A|-3-3-3-3-3-3-3-3|-3-3---3---3----|-3-3-3-3-3-3-3-3|--2-2-2--2-2-2|
E|----------------|----------------|----------------|--------------|

[Verse 2]
G|----------------|----------------|----------------|----------------|
D|----------------|----------------|----------------|----------------|
A|----------------|----------------|----------------|----------------|
E|-0-0-0-0-0-0-0-0|-0-0-0-0-0-0-0-0|-0-0-0-0-0-0-0-0|-0-0-0-0-0-0-0-5|

G|----------------|----------------|----------------|----------------|
D|----------------|----------------|----------------|----------------|
A|----------------|----------------|----------------|----------------|
E|-5-5-5-5-5-5-5-5|-5-5-5-5-5-5-5-5|-0-0-0-0-0-0-0-0|-0-0-0-0-0-0-0-0|

G|----------------|----------------|----------------|---------------|
D|----------------|---------------2|----------------|---------------|
A|-2-2-2-2-2-2-2-2|-2-2-2-2-2-2-4--|----------------|--2-2-2-2-2-2-2|
E|----------------|----------------|-0-0-0-0-0-0-0-0|---------------|

[Chorus]
G|----------------|----------------|----------------|----------------|
D|----------------|---------5-5-4--|---------6-6----|---------5-5-4--|
A|-------2-5-5-4-2|-----4-7-------7|-4-4-6-7-----7-4|-----4-7-------7|
E|-0-0-4----------|-5-5------------|----------------|-5-5------------|

G|----------------|----------------|----------------|
D|----------------|---5-2----------|----------------|
A|-7-7-4-4--------|-3-----3-5-2-0--|---------------7|
E|---------7-7-4-7|---------------2|-0-0-0-0-0-0-0--|

G|----------------------|-----------------------|---16\-------------------|
D|----------------------|-----------------------|-------------------------|
A|----------------------|-3---------------------|-3-----------------------|
E|-8---x-0---1----1-3---|-----x-0---1----1-3--3-|--------x-0---1----1-3---|

G|---------------------|-----------|-----------------|
D|---------------------|-----------|-----------------|
A|---------------------|-----------|-----------------|
E|-5----3----1----1--3-|--5-5-5--3-|-1--1-1-1-3-3-3-3|

[Interlude]
G|----------------|-----3---2------|----------------|----------------|
D|----------------|-------------1-2|----------------|-----0---1---2--|
A|-3-3-3-3-3-3-3-3|-3-3---3---3----|-3-3-3-3-3-3-3-3|-3-3---3---3---3|
E|----------------|----------------|----------------|----------------|

[Instrumental]
G|----------------|----------------|----------------|----------------|
D|-3-3-3-3-3-3-3-3|-3-3-3-3--------|----------------|-----0---1---2--|
A|----------------|---------0-0-1-2|-3-3-3-3-3-3-3-3|-3-3---3---3---3|
E|----------------|----------------|----------------|----------------|

G|----------------|----------------|----------------|----------------|
D|-3-3-3-3-3-3-3-3|-3-3-3-3--------|----------------|---------0-0-1-2|
A|----------------|---------0-0-1-2|-3-3-3-3-3-3-3-3|-3-3-3-3--------|
E|----------------|----------------|----------------|----------------|

G|-------------|---------------|---------------|---------------|
D|-3-----------|---------------|---------------|---------------|
A|-------------|-6-6-6---------|-4-4-4---------|--2-2-2-2-2-2-2|
E|-----6--6-6-6|-------4--4-4-4|-------2--2-2-2|---------------|

[Chorus]
G|----------------|----------------|----------------|----------------|
D|----------------|---------5-5-4--|---------6-6----|---------5-5-4--|
A|-------2-5-5-4-2|-----4-7-------7|-4-4-6-7-----7-4|-----4-7-------7|
E|-0-0-4----------|-5-5------------|----------------|-5-5------------|

G|----------------|----------------|----------------|
D|----------------|---5-2----------|----------------|
A|-7-7-4-4--------|-3-----3-5-2-0--|---------------7|
E|---------7-7-4-7|---------------2|-0-0-0-0-0-0-0--|

G|----------------------|-----------------------|----------------------|---------------------|
D|----------------------|-----------------------|----------------------|---------------------|
A|----------------------|-3---------------------|-3--------------------|---------------------|
E|-8---x-0---1----1-3---|-----x-0---1----1-3--3-|-----x-0---1----1-3---|-5----3----1----1--3-|

G|-----------|-----------------|------------|-----------------|
D|-----------|-----------------|------------|-----------------|
A|-----------|-----------------|------------|-----------------|
E|--5-5-5--3-|-1--1-1-1-3-3-3-3|-5-5-5-5--3-|-1--1-1-1-3-3-3-3|

G|-----------|-----------------|-----------|-----------------|
D|-----------|-----------------|-----------|-----------------|
A|-----------|-----------------|-----------|----------------2|
E|--5-5-5--3-|-1--1-1-1-3-3-3-3|--5-5-5--3-|-1--1-1-1-3-3-3--|

[Outro]
G|----------------|----------------|----------------|----------------|
D|----------------|----------------|----------------|----------------|
A|-3-3-3-3-3-3-3-3|-3-3-3-3-3-3-3-3|-3-3-3-3-3-3-3-3|-3-3-3-3-3-3-3-3|
E|----------------|----------------|----------------|----------------|

G|----------------|-------------------|------------------------|--------------------|
D|----------------|---------------5/10|-10-10-10-10-10-10-10-10|-10-10-8-8----------|
A|-3-3-3-3-3-3-3-3|-3-3-3-3-3-3-3-----|------------------------|-----------10-10-6-7|
E|----------------|-------------------|------------------------|--------------------|

G|----------------|----------------|----------------|---------------|
D|----------------|----------------|----------------|---------------|
A|----------------|----------------|----------------|------------0--|
E|-8-8-8-8-8-8-8-8|-8-8-8-8-8-8-8-8|-8-8-8-8-8-8-8-0|--0-1-1-3-3---3|

G|----------------|----------------|----------------|----------------| (x3)
D|----------------|----------------|----------------|----------------|
A|-3-3-3-3-3-3-3-3|-3-3-3-3-3-3-3-3|-3-3-3-3-3-3-3-3|-3-3-3-3-3-3-3-3|
E|----------------|----------------|----------------|----------------|


*************************************

| / Slide up
| \ Slide down
| x Dead note

*************************************

            
            
Suggest correction
Creating personal tab
Creating personal tab
You can edit any tab online and save it as your Personal.

You can edit, replace or remove any tab part or add personal notes – all changes will be seen only by you.

Personal tabs can be accessed anytime from any device, even offline.
Learn more »
Give kudos to tab author, rate the tab!
1 2 3 4 5
comments
print report bad tab
guest
You may want to rate the tab now too:
select rating
Wanna post a correction for this tab? Suggest correction