Oops, an error
Loading. Please wait.

Pixeles Daño Colateral Pérdidas Amorosas tab

37 views 1 this week
no commentswrite comment
1 2 3 4 5
3 more votes to show rating
add to favorites
×
Save as Personal and add changes to this tab that will be seen only by you. Learn more ›
×
You can save this tab as Personal to edit and correct it or add notes. All changes will be seen only by you. Learn more »
launch autoscroll
font size
0
reset
how to read this tab
guitar tuner
edit
Autoscroll
slow
fast
+/-
esc
set tempo
stop
About this tab version
Esta es la manera en como la grabe en el estudio. Was this info helpful? Yes No
[Guitarra 1]
Afinación / Tuning: DAC#EBE
Capo traste / fret: #4 

   [Intro/Verso]
  e|--------------------0--------------|--------------------0----------|
  B|--------------0----------0---------|--------------0----------0-----|
  E|-5---5---5------5------5-----------|-5---5---5------5------5-------|
 C#|---7---7---7------7--------7-------|---7---7---7------7--------7---|
  A|-----------------------------------|-------------------------------|
  D|-4------------4--------------------|-4------------4----------------|

  e|---------------------0-----------|------------------------0--------|
  B|---------------0-----------0-----|------------------0---------0----|
  E|--2---2---2------4-------5-------|--9----9-----9------9-----9------|
 C#|----3---3---3------5---------5---|----------8-----------8-------8--|
  A|---------------------------------|---- 9---------9-----------------|
  D|--0------------0-----------------|--0---------------0--------------|

  e|--------0------------------------|--------0h9h11p9-----------------|
  B|-10---------10-------------------|--7h9--------------12---11---9---|
  E|----9-----9----------------------|---------------------------------|
 C#|------8--------8-----------------|---------------------------------|
  A|---------------------------------|------9----------9----9----9-----|
  D|--0------------------------------|--0------------------------------|

   [Outro] 2:35
  e|--------0------------------------| \
  B|-10---------10-------------------|  \
  E|----9-----9----------------------|    Repeat 6 times (Repetir 6 veces)
 C#|------8--------8-----------------|  / 
  A|---------------------------------| /
  D|--0------------------------------|/

  e|--------0h9h11p9-----------------|
  B|--7h9--------------12---11---9---|
  E|---------------------------------|
 C#|---------------------------------|
  A|------9----------9----9----9-----|
  D|--0------------------------------|

  e|-----------------------| \
  B|---------12---11---9---|  \
  E|-----------------------|    Repeat 6 Times (Repetir 6 veces)
 C#|-----------------------|   /
  A|------9-----9----9-----|  /
  D|--0--------------------| /

   [Ending / Final]
  e|-------0----------0--------0----------0---|--0-~---|
  B|--12---------11--------9---------11-------|--7-~---|
  E|-----0---0------0---0----0---0------0---0-|--0-~---|
 C#|------------------------------------------|--8-~---|
  A|------------------------------------------|--9-~---|
  D|------------------------------------------|--0-~---|

---------------------------------------------------------------------------------

[Guitarra 2]
Afinación/Tuning: EADGBE
Capo traste/fret: #4
   
   [2nd Verse / 2do Verso]
  e|------14-----12------10-----9-|-----7------5------7-----5---|
  B|9/10----10/9----9/7----7/5----|-5/3---3/2-----2/3---3/2-----|
  G|------------------------------|-----------------------------|
  D|------------------------------|-----------------------------|
  A|------------------------------|-----------------------------|
  E|------------------------------|-----------------------------|

  e|----2---2---2---2---2---2---2---2---2-|-------7-7h9------7-7h9-----7-7h9----|
  B|--5---3---2---5---3---2---5---3---2---|-2/3/5-------7p5--------7p5--------7-|
  G|--------------------------------------|-------------------------------------|
  D|--------------------------------------|-------------------------------------|
  A|--------------------------------------|-------------------------------------|
  E|--------------------------------------|-------------------------------------|

   Repeats again but with a little bit of reverse delay
  
   [Ending / Final] (2:35)
  e|-------7-7h9-------|---5-~---|
  B|---7p5-------(x6)--|---5-~---|
  G|-------------------|---------|
  D|-------------------|---------|
  A|-------------------|---------|
  E|-------------------|---------|
   
   Ending totally wet on reverse delay / El final totalmente bañado en reverse delay

***********************************
 Tab legend / Nomenclatura de la tablatura:
 
 p = pull of
 h = hammer on
 ~ = let ring (dejar sonando)
 / = slide 
  x = repeat by a number of times (repetir por un númer ode partes)
***********************************

            
            
Suggest correction
Creating personal tab
Creating personal tab
You can edit any tab online and save it as your Personal.

You can edit, replace or remove any tab part or add personal notes – all changes will be seen only by you.

Personal tabs can be accessed anytime from any device, even offline.
Learn more »
Give kudos to tab author, rate the tab!
1 2 3 4 5
comments
print report bad tab
guest
You may want to rate the tab now too:
select rating
Wanna post a correction for this tab? Suggest correction