Oops, an error
Loading. Please wait.

ジュピター bass

43 views 1 this week
no commentswrite comment
1 2 3 4 5
3 more votes to show rating
add to favorites
×
Save as Personal and add changes to this tab that will be seen only by you. Learn more ›
×
You can save this tab as Personal to edit and correct it or add notes. All changes will be seen only by you. Learn more »
launch autoscroll
font size
0
reset
guitar tuner
edit
Autoscroll
slow
fast
+/-
esc
set tempo
stop
Author
Difficulty
[Intro]
G|------------|----------------|--------------------|
D|------------|----------------|--------------------|
A|------------|-5-5-5-7-7-7-7-7|------5---7---7-----|
E|-5--5--5--5-|----------------|--5-----------------|

G|----------------|----------------|----------------|----------------|
D|----------------|----------------|----------------|---------.-.-.-.|
A|----------------|----------------|-7-7-7-7-7-7-7-7|-7-7-7-7-7-7-7-7|
E|-5-5-5-5-5-5-5-5|-5-5-5-5-5-5-5-5|----------------|----------------|

[Verse 1]
G|----------------|----------------|----------------|------------------|
D|----------------|----------------|----------------|------------------|
A|----------------|----------------|----------------|------------------|
E|-5-5-5-5-5-5-5-5|-0-0-0-0-0-0-0-0|-2-2-2-2-2-2-2-2|-0-0-0-(0-0-5)--0-|

G|----------------|----------------|----------------|----------------|
D|----------------|----------------|----------------|----------------|
A|----------------|----------------|----------------|----------------|
E|-5-5-5-5-5-5-5-5|-0-0-0-0-0-0-0-0|-2-2-2-2-2-2-2-2|-0-0-0-0-0-0-0-0|

                           P                             P
G|-------------|-----------5-h7|-------------|-----------5-h7|
D|-------------|---------------|-------------|---------------|
A|-5-5--5--5--5|-5-5--5--5-----|-5-5--5--5--5|-5-5--5--5-----|
E|-------------|---------------|-------------|---------------|

G|-------------|-------------|-------------|-----7----(7-7-7-7-7)|
D|-------------|-------------|-------------|---------------------|
A|-5-5--5--5--5|-------------|-5-5--5--5--5|-5-5---5-------------|
E|-------------|-5-5--5--5--5|-------------|---------------------|

[Verse 2]
G|----------------|----------------|----------------|------------------|
D|----------------|----------------|----------------|------------------|
A|----------------|----------------|----------------|------------------|
E|-5-5-5-5-5-5-5-5|-0-0-0-0-0-0-0-0|-2-2-2-2-2-2-2-2|-0-0-0-(0-0-5)--0-|

G|----------------|----------------|----------------|----------------|
D|----------------|----------------|----------------|----------------|
A|----------------|----------------|----------------|----------------|
E|-5-5-5-5-5-5-5-5|-0-0-0-0-0-0-0-0|-2-2-2-2-2-2-2-2|-0-0-0-0-0-0-0-0|

[Pre-Chorus]               P                             P
G|-------------|-----------5-h7|-------------|-----------5-h7|
D|-------------|---------------|-------------|---------------|
A|-5-5--5--5--5|-5-5--5--5-----|-5-5--5--5--5|-5-5--5--5-----|
E|-------------|---------------|-------------|---------------|

G|-------------|-------------|-------------|----7---7---7--|
D|-------------|-------------|-------------|---------------|
A|-5-5--5--5--5|-------------|-5-5--5--5--5|--5---5---5---5|
E|-------------|-5-5--5--5--5|-------------|---------------|

[Chorus]
G|----------------|----------------|----------------|----------------|
D|----------------|----------------|----------------|----------------|
A|-2-2-2-2-2-2-2-2|-2-2-3-4-5-5----|----------------|----------------|
E|----------------|-------------2-3|-3-3-3-3-3-3-3-3|-3-3-3-3-3-3-3-0|

G|----------------|----------------|----------------|----------------|
D|----------------|----------------|----------------|----------------|
A|----------------|----------------|----------------|----------------|
E|-0-0-0-0-0-0-0-0|-0-0-0-0-0-0-0-0|-5-5-5-5-5-5-5-5|-5-5-5-5-5-5-5-5|

G|----------------|----------------|----------------|----------------|
D|----------------|----------------|----------------|----------------|
A|-2-2-2-2-2-2-2-2|-2-2-3-4-5-5----|----------------|----------------|
E|----------------|-------------2-3|-3-3-3-3-3-3-3-3|-3-3-3-3-3-3-3-0|

G|----------------|----------------|-----------------9/11-9--\|
D|----------------|----------------|----------(7)---/---------|
A|----------------|----------------|--------------------------|
E|-0-0-0-0-0-0-0-0|-0-0-0-0-0-0-0-0|-5------------------------|

[Interlude]
G|-------------------------------|-------------------------------|
D|---------2---------------------|---------7---------------------|
A|-------------------------------|-------4-----4-----------------|
E|-0-0-2-4---2-4-0--0-0-0-0-0-0-0|-5-5-7-----7---5--5-5-5-5-5-5-5|

G|-------------------------------|-----------------------------------|
D|---------2---------------------|-----------------------------------|
A|-------------------------------|-------5-5---------7---------------|
E|-0-0-2-4---2-4-0--0-0-0-0-0-0-0|-5-5---------5-5-------------------|

[Verse 3]
G|----------------|----------------|----------------|------------------|
D|----------------|----------------|----------------|------------------|
A|----------------|----------------|----------------|------------------|
E|-5-5-5-5-5-5-5-5|-0-0-0-0-0-0-0-0|-2-2-2-2-2-2-2-2|-0-0-0-(0-0-5)--0-|

G|----------------|----------------|----------------|----------------|
D|----------------|----------------|----------------|----------------|
A|----------------|----------------|----------------|----------------|
E|-5-5-5-5-5-5-5-5|-0-0-0-0-0-0-0-0|-2-2-2-2-2-2-2-2|-0-0-0-0-0-0-0-0|

[Pre-Chorus]               P                             P
G|-------------|-----------5-h7|-------------|-----------5-h7|
D|-------------|---------------|-------------|---------------|
A|-5-5--5--5--5|-5-5--5--5-----|-5-5--5--5--5|-5-5--5--5-----|
E|-------------|---------------|-------------|---------------|

G|-------------|-------------|-------------|----7---7---7--|
D|-------------|-------------|-------------|---------------|
A|-5-5--5--5--5|-------------|-5-5--5--5--5|--5---5---5---5|
E|-------------|-5-5--5--5--5|-------------|---------------|

[Chorus]
G|----------------|----------------|----------------|----------------|
D|----------------|----------------|----------------|----------------|
A|-2-2-2-2-2-2-2-2|-2-2-3-4-5-5----|----------------|----------------|
E|----------------|-------------2-3|-3-3-3-3-3-3-3-3|-3-3-3-3-3-3-3-0|

G|----------------|----------------|----------------|----------------|
D|----------------|----------------|----------------|----------------|
A|----------------|----------------|----------------|-----7-------7--|
E|-0-0-0-0-0-0-0-0|-0-0-0-0-0-0-0-0|-5-5-5-5-5-5-5-5|-5-5---5-5-5---5|

G|----------------|----------------|----------------|----------------|
D|----------------|----------------|----------------|----------------|
A|-2-2-2-2-2-2-2-2|-2-2-3-4-5-5----|----------------|----------------|
E|----------------|-------------2-3|-3-3-3-3-3-3-3-3|-3-3-3-3-3-3-3-0|

G|----------------|----------------|----------------|
D|----------------|----------------|----------------|
A|----------------|----------------|----------------|
E|-0-0-0-0-0-0-0-0|-0-0-0-0-0-0-0-0|-5--------/--19\|

[Instrumental]
G|----------------|----------------|----------------|------------------|
D|----------------|----------------|----------------|------------------|
A|----------------|----------------|----------------|------------------|
E|-5-5-5-5-5-5-5-5|-0-0-0-0-0-0-0-0|-2-2-2-2-2-2-2-2|-0-0-0-(0-0-5)--0-|

G|----------------|----------------|----------------|----------------|
D|----------------|----------------|----------------|----------------|
A|----------------|----------------|----------------|----------------|
E|-5-5-5-5-5-5-5-5|-0-0-0-0-0-0-0-0|-2-2-2-2-2-2-2-2|-0-0-0-0-0-0-0-0|

G|------------------------14-12-11\|---------------------------------|
D|------------------12-12----------|------------------------14-12-11\|
A|-5---5---5---5/12----------------|------------------12-12----------|
E|---------------------------------|-5---5---5---5/12----------------|

G|--------------------|-------------|-----7-----7---|
D|--------------------|-------------|---------------|
A|-7---7---7---------\|-5-5--5--5--5|-5-5---5-5---5\|
E|--------------------|-------------|---------------|

[Chorus]
G|----------------|----------------|----------------|----------------|
D|----------------|----------------|----------------|----------------|
A|-2-2-2-2-2-2-2-2|-2-2-3-4-5-5----|----------------|----------------|
E|----------------|-------------2-3|-3-3-3-3-3-3-3-3|-3-3-3-3-3-3-3-0|

G|----------------|----------------|----------------|------------------|
D|----------------|----------------|----------------|------------------|
A|----------------|----------------|----------------|------------------|
E|-0-0-0-0-0-0-0-0|-0-0-0-0-0-0-0-0|-5-5-5-5-5-5-5-5|-5-5-5-/17--17-17\|

G|----------------|----------------|----------------|----------------|
D|----------------|----------------|----------------|----------------|
A|-2-2-2-2-2-2-2-2|-2-2-3-4-5-5----|----------------|----------------|
E|----------------|-------------2-3|-3-3-3-3-3-3-3-3|-3-3-3-3-3-3-3-0|

G|----------------|----------------|----------------|------------|
D|----------------|----------------|----------------|------------|
A|----------------|----------------|----------------|------------|
E|-0-0-0-0-0-0-0-0|-0-0-0-0-0-0-0-0|-5-5-5-5-5-5-5-5|-5--5--5--5-|

G|----------------|----------------|----------------|----------------|
D|----------------|----------------|----------------|----------------|
A|-2-2-2-2-2-2-2-2|-2-2-4-2-0-2-2--|----------------|----------------|
E|----------------|---------------3|-3-3-3-3-3-3-3-3|-3-3-3-3-3-3-3-0|

G|----------------|----------------|------------|------------|
D|----------------|----------------|------------|------------|
A|----------------|----------------|------------|------------|
E|-0-0-0-0-0-0-0-0|-0-0-0-0-0-0-0-0|-5--5--5--5-|-5--5--5--5-|

[Outro]
G|-----------------|--------------------|-----------------|
D|-----------------|--------------------|-----------------|
A|-----------------|---5---------7------|-----------------|
E|-0---------------|--------5---------5-|-7---------------|

G|--------------------|------------------------------------------|---|
D|--------------------|------------------------------------------|---|
A|---5---------7------|---5\------5\------5\------5\------5\-----|---|
E|--------5---------5-|------------------------------------------|-5-|


***********************************

| / Slide up
| \ Slide down
| P Pop
| h Hammer-on
| . Staccato
| (n) Ghost note
| (n-n) Fast

***********************************
Suggest correction
Creating personal tab
Creating personal tab
You can edit any tab online and save it as your Personal.

You can edit, replace or remove any tab part or add personal notes – all changes will be seen only by you.

Personal tabs can be accessed anytime from any device, even offline.
Learn more »
Give kudos to tab author, rate the tab!
1 2 3 4 5
comments
print report bad tab
guest
You may want to rate the tab now too:
select rating
Wanna post a correction for this tab? Suggest correction