Oops, an error
Loading. Please wait.

Silenced In Arms - Unkтown Title bass

4 views 1 this week
no commentswrite comment
1 2 3 4 5
3 more votes to show rating
add to favorites
×
Save as Personal and add changes to this tab that will be seen only by you. Learn more ›
×
You can save this tab as Personal to edit and correct it or add notes. All changes will be seen only by you. Learn more »
launch autoscroll
font size
0
reset
guitar tuner
edit
Autoscroll
slow
fast
+/-
esc
set tempo
stop
About this tab version
This song is my band: "Silenced In Arms" original song. Was this info helpful? Yes No
[Intro]

G|------------------------||---------------------------|----------------------------||
D|-2-----2-----2-----2----||-2-----2-----2-----2-2-2-2-|-0-----0-----1-----1--------||
A|------------------------||----2-----2-----2----------|----2-----2-----2-----2-4-6-|| x2
D|----2-----2-----2-----2-||---------------------------|----------------------------||

[Verse 1a]

G||----------------------------||    |---------------------------|
D||-2-----2-----0-----1--------||    |-2-----2-----2-----2-2-2-2-| 
A||----2-----2-----2-----2-4-6-|| x2 |----2-----2-----2----------|
D||----------------------------||    |---------------------------|

[Verse 1b]

G||----------------------------||    
D||-2-----2-----0-----1--------||    
A||----2-----2-----2-----2-4-6-|| x2 At the end of the second time is the build up to the chorus so play
D||----------------------------||    


G|------------------------------|
D|-2-----2-----0-----1-1-1-1-1-1|
A|----2-----2-----2--2-2-2-2-2-2|
D|------------------------------|

[Chorus]

G||-9-------|-8-------||    |-9-------|-8-------|-7-------|-13------|-14-----|---------|
D||-10------|-6-------||    |-10------|-10------|-9-------|-12------|-13-----|---------|
A||-----x12-|-----x12-|| x2 |-----x12-|-----x12-|-----x12-|-----x12-|-----x6-|---------|Back to intro
D||---------|---------||    |---------|---------|---------|---------|--------|-9-7-5-4-|


G|---------------------------|
D|-2-----2-----2-----2-2-2-2-|
A|----2-----2-----2----------|
D|---------------------------|

[Verse 2]

G||----------------------------||    |-------------------------------|
D||-2-----2-----0-----1--------||    |-2-----2-----0-----1-1-1-1-1-1-|
A||----2-----2-----2-----2-4-6-|| x3 |----2-----2-----2--2-2-2-2-2-2-|
D||----------------------------||    |-------------------------------|

[Back to Chorus]

After 2nd Chorus comes the bridge :)

G|-------------------------||-------------------------|-------------------------||
D|-------------------------||-------------------------|-------------------------||
A|-------------------------||-------------------------|-------------------------|| x7? Final one ends like
D|-2-2-2-2-2-2-2-2-2-2-2-2-||-2-2-2-2-2-2-5-7-9-7-5-4-|-1-1-1-1-1-1-4-5-7-5-4-0-||

[Bridge Outro]

G|----------------------------------------|
D|----------------------------------------|
A|----------------------------------------| 
D|-1-1-1-1-1-1-4-5-7-5-4-0-9~-7~-5~-4~-1~-|

[Outro]

The outro is just the chorus with the very beginning added on to it, we can go over it at practice :)

            
            
Suggest correction
Creating personal tab
Creating personal tab
You can edit any tab online and save it as your Personal.

You can edit, replace or remove any tab part or add personal notes – all changes will be seen only by you.

Personal tabs can be accessed anytime from any device, even offline.
Learn more »
Give kudos to tab author, rate the tab!
1 2 3 4 5
comments
print report bad tab
guest
Wanna post a correction for this tab? Suggest correction