Oops, an error
Loading. Please wait.

P・r・e・s・e・n・t bass

49 views 1 this week
no commentswrite comment
1 2 3 4 5
3 more votes to show rating
add to favorites
×
Save as Personal and add changes to this tab that will be seen only by you. Learn more ›
×
You can save this tab as Personal to edit and correct it or add notes. All changes will be seen only by you. Learn more »
launch autoscroll
font size
0
reset
guitar tuner
edit
Autoscroll
slow
fast
+/-
esc
set tempo
stop
Author
Difficulty
(Bass Start - 00:05)

[Intro]
G|----------------|----------------|----------------|----------------| (x4)
D|----------------|----------------|----------------|----------------|
A|-1-1-1-1-1-1-1-1|-1-1-1-1-1-1-1-1|-1-1-1-1-1-1-1-1|-1-1-1-1-1-1-1-1|
E|----------------|----------------|----------------|----------------|

G|----------------|-----0----------|
D|----------------|-------4-3-0----|
A|-1-1-1-1-1-1-1-1|-1-1---------3-2|
E|----------------|----------------|

[Verse 1]
G|----------------|----------------|----------------|----------------| 
D|----------------|----------------|----------------|----------------|
A|-1-1-1-1-1-1-1-1|-1-1-1-1-1-1-1-1|-1-1-1-1-1-1-1-1|-1-1-1-1-1-1-1-1|
E|----------------|----------------|----------------|----------------|

G|----------------|----------------|----------------|----------------| 
D|----------------|----------------|----------------|---------------0|
A|-1-1-1-1-1-1-1-1|-1-1-1-1-1-1-1-1|-1-1-1-1-1-1-1-1|-1-1-1-1-1-3-4--|
E|----------------|----------------|----------------|----------------|

G|----------------|----------------|----------------|----------------|
D|-1-1-1-1-1-1-1-1|-1-1-1-1-1-1-1-1|-0-0-0-0-0-0-0-0|----------------|
A|----------------|----------------|----------------|-----------0-1-2|
E|----------------|----------------|----------------|-3-3-3-3-3------|

G|----------------|-----------5----|----------------|----------------|
D|----------------|----------------|----------------|----------------|
A|-3-3-3-3-3-3-3-3|-3-3-3-3-3---3-3|----------------|----------------|
E|----------------|----------------|-1-1-1-1-1-1-1-1|-1-1-1-1-1-1-1-1|

G|----------------|----------------|----------------|----------------| (x2)
D|----------------|----------------|----------------|----------------|
A|-1-1-1-1-1-1-1-1|-1-1-1-1-1-1-1-1|-1-1-1-1-1-1-1-1|-1-1-1-1-1-1-1-1|
E|----------------|----------------|----------------|----------------|

G|----------------|----------------|----------------|----------------|
D|-1-1-1-1-1-1-1-1|-1-1-1-1-1-1-1-1|-0-0-0-0-0-0-0-0|----------------|
A|----------------|----------------|----------------|----------------|
E|----------------|----------------|----------------|-3-3-3-3-3-3-3-3|

G|----------------|----------------|----------------|----------------|
D|----------------|----------------|----------------|----------------|
A|-3-3-3-3-3-3-3-3|----------------|-1-1-1-1-1-1-1-1|-1-1-1-1-1-1-1-1|
E|----------------|-1-1-1-1-1-1-1-1|----------------|----------------|

[Chorus]
G|----------------|----------------|----------------|----------------|
D|-1-1-1-1-1-1-1-1|-1-1-1-1-1-1-1-1|----------------|----------------|
A|----------------|----------------|-1-1-1-1-1-1-1-1|-1-1-1-1-1-1-1-1|
E|----------------|----------------|----------------|----------------|

G|----------------|----------------|----------------|----------------|
D|-1-1-1-1-1-1-1-1|-1-1-1-1-1-1-1-1|-0-0-0-0-0-0-0-0|----------------|
A|----------------|----------------|----------------|----------------|
E|----------------|----------------|----------------|-3-3-3-3-3-3-3-3|

G|----------------|----------------|----------------|----------------|
D|----------------|----------------|----------------|-0-0-0-0-0-0-0-0|
A|-3-3-3-3-3-3-3-3|----------------|-1-1-1-1-1-1-1-1|----------------|
E|----------------|-1-1-1-1-1-1-1-1|----------------|----------------|

G|----------------|----------------|-----------------|
D|----------------|----------------|-----------------|
A|-3-3-3-3-3-3-3-3|----------------|-1---------------|
E|----------------|-1-1-1-1-1-1-1-1|-----------------|

[Interlude]
G|------------------|----------------|
D|------------------|----------------|
A|-0h1-1-1-1-1-1-1-1|-1-1-1-1-1-1-1-1|
E|------------------|----------------|

[Verse 2]
G|----------------|----------------|----------------|----------------| 
D|----------------|----------------|----------------|----------------|
A|-1-1-1-1-1-1-1-1|-1-1-1-1-1-1-1-1|-1-1-1-1-1-1-1-1|-1-1-1-1-1-1-1-1|
E|----------------|----------------|----------------|----------------|

G|----------------|----------------|----------------|----------------| 
D|----------------|----------------|----------------|---------------0|
A|-1-1-1-1-1-1-1-1|-1-1-1-1-1-1-1-1|-1-1-1-1-1-1-1-1|-1-1-1-1-1-3-4--|
E|----------------|----------------|----------------|----------------|

G|----------------|----------------|----------------|----------------|
D|-1-1-1-1-1-1-1-1|-1-1-1-1-1-1-1-1|-0-0-0-0-0-0-0-0|----------------|
A|----------------|----------------|----------------|-----------0-1-2|
E|----------------|----------------|----------------|-3-3-3-3-3------|

G|-----------5----|----------------|----------------|----------------|
D|----------------|----------------|----------------|---------------0|
A|-3-3-3-3-3---3-3|----------------|-1-1-1-1-1-1-1-1|-1-1-1-1-1-1-3--|
E|----------------|-1-1-1-1-1-1-1-1|----------------|----------------|

[Chorus]
G|----------------|----------------|----------------|----------------|
D|-1-1-1-1-1-1-1-1|-1-1-1-1-1-1-1-1|----------------|----------------|
A|----------------|----------------|-1-1-1-1-1-1-1-1|-1-1-1-1-1-1-1-1|
E|----------------|----------------|----------------|----------------|

G|----------------|----------------|----------------|----------------|
D|-1-1-1-1-1-1-1-1|-1-1-1-1-1-1-1-1|-0-0-0-0-0-0-0-0|----------------|
A|----------------|----------------|----------------|-----------0-1-2|
E|----------------|----------------|----------------|-3-3-3-3-3------|

G|----------------|----------------|----------------|----------------|
D|----------------|----------------|----------------|-0-0-0-0-0-0-0-0|
A|-3-3-3-3-3-3-3-3|----------------|-1-1-1-1-1-1-1-1|----------------|
E|----------------|-1-1-1-1-1-1-1-1|----------------|----------------|

G|----------------|----------------|----------------|----------------|
D|----------------|----------------|----------------|---------------0|
A|-3-3-3-3-3-3-3-3|----------------|-1-1-1-1-1-1-1-1|-1-1-1-1-1-3-4--|
E|----------------|-1-1-1-1-1-1-1-1|----------------|----------------|

G|----------------|----------------|----------------|----------------|
D|-1-1-1-1-1-1-1-1|-1-1-1-1-1-1-1-1|----------------|----------------|
A|----------------|----------------|-1-1-1-1-1-1-1-1|-1-1-1-1-1-1-1-1|
E|----------------|----------------|----------------|----------------|

G|----------------|----------------|----------------|----------------|
D|-1-1-1-1-1-1-1-1|-1-1-1-1-1-1-1-1|-0-0-0-0-0-0-0-0|-5-4-3-0--------|
A|----------------|----------------|----------------|---------2-0----|
E|----------------|----------------|----------------|-------------4-3|

G|----------------|----------------|----------------|----------------|
D|----------------|----------------|----------------|-0-0-0-0-0-0-0-0|
A|-3-3-3-3-3-3-3-3|----------------|-1-1-1-1-1-1-1-1|----------------|
E|----------------|-1-1-1-1-1-1-1-1|----------------|----------------|

G|----------------|----------------|
D|----------------|----------------|
A|-3-3-3-3-3-3-3-3|----------------|
E|----------------|-1-1-1-1-1-1-1-1|

[Bridge]
G|----------------|----------------|-----------5-5-5|----------------| 
D|----------------|----------------|----------------|----------------|
A|-1-1-1-1-1-1-1-1|----------------|-3-3-3-3-3------|----------------|
E|----------------|-3-3-3-3-3-3-3-3|----------------|-1-1-1-1-1-1-1-1|

G|----------------|----------------|-----5-----5----|----------------| 
D|----------------|----------------|----------------|----------------|
A|-1-1-1-1-1-1-1-1|----------------|-3-3---3-3---3-3|----------------|
E|----------------|-3-3-3-3-3-3-3-3|----------------|-1-1-1-1-1-1-1-1|

G|----------------|----------------|----------------|----------------|
D|----------------|----------------|----------------|----------------|
A|-1-1-1-1-1-1-1-1|----------------|-1-1-1-1-1-1-1-1|----------------|
E|----------------|-4-4-4-4-4-4-4-4|----------------|-4-4-4-4-4-4-4-4|

G|----------------|----------------|-----------------|
D|----------------|----------------|-----------------|
A|-1-1-1-1-1-1-1-1|----------------|-1---------------|
E|----------------|-4-4-4-4-4-4-4-4|-----------------|

[Interlude]
G|------------------|----------------|
D|------------------|----------------|
A|-0h1-1-1-1-1-1-1-1|-1-1-1-1-1-1-1-1|
E|------------------|----------------|

[Outro]
G|----------------|----------------|----------------|----------------| 
D|----------------|----------------|----------------|----------------|
A|-1-1-1-1-1-1-1-1|-1-1-1-1-1-1-1-1|-1-1-1-1-1-1-1-1|-1-1-1-1-1-1-1-1|
E|----------------|----------------|----------------|----------------|

G|----------------|----------------|----------------|----------------| 
D|----------------|----------------|----------------|-----------0-1-3|
A|-1-1-1-1-1-1-1-1|-1-1-1-1-1-1-1-1|-1-1-1-1-1-1-1-1|-1-1-1-1-1------|
E|----------------|----------------|----------------|----------------|

G|----------------|----------------|----------------|----------------| 
D|----------------|----------------|----------------|----------------|
A|-1-1-1-1-1-1-1-1|-1-1-1-1-1-1-1-1|-1-1-1-1-1-1-1-1|-1-1-1-1-1-1-1-1|
E|----------------|----------------|----------------|----------------|

G|----------------|----------------|----------------|---3-0----------| 
D|----------------|----------------|----------------|-------4-3-0----|
A|-1-1-1-1-1-1-1-1|-1-1-1-1-1-1-1-1|-1-1-1-1-1-1-1-1|-1-----------3-2|
E|----------------|----------------|----------------|----------------|

G|----------------|----------------|----------------|----------------| 
D|----------------|----------------|----------------|----------------|
A|-1-1-1-1-1-1-1-1|-1-1-1-1-1-1-1-1|-1-1-1-1-1-1-1-1|-1-1-1-1-1-1-1-1|
E|----------------|----------------|----------------|----------------|
                                                           (fade out)
G|----------------|----------------|----------------|----------------| 
D|----------------|----------------|----------------|----------------|
A|-1-1-1-1-1-1-1-1|-1-1-1-1-1-1-1-1|-1-1-1-1-1-1-1-1|-1-1-1-1-1-1-1-1|
E|----------------|----------------|----------------|----------------|


************************************

| h Hammer-on

************************************

            
            
Suggest correction
Creating personal tab
Creating personal tab
You can edit any tab online and save it as your Personal.

You can edit, replace or remove any tab part or add personal notes – all changes will be seen only by you.

Personal tabs can be accessed anytime from any device, even offline.
Learn more »
Give kudos to tab author, rate the tab!
1 2 3 4 5
comments
print report bad tab
guest
You may want to rate the tab now too:
select rating
Wanna post a correction for this tab? Suggest correction