Oops, an error
Loading. Please wait.

신 인류의 사랑 tab

by 015B
28 views 1 this week
no commentswrite comment
1 2 3 4 5
3 more votes to show rating
add to favorites
×
Save as Personal and add changes to this tab that will be seen only by you. Learn more ›
×
You can save this tab as Personal to edit and correct it or add notes. All changes will be seen only by you. Learn more »
launch autoscroll
font size
0
reset
how to read this tab
guitar tuner
edit
Autoscroll
slow
fast
+/-
esc
set tempo
stop
Title: 신 인류의 사랑 (Seul Peun In Yeonn)
Artist: 015B
Album: The Fourth Movement

Tempo = 126

[Intro]

e|-----------0-----------0----|-----------0-----------0----|
B|-----4-----------4----------|-----4-----------4----------|
G|--------4-----------4-------|--------4-----------4-------|
D|--2-----------2-------------|----------------------------|
A|----------------------------|--4-----------4-------------|
E|----------------------------|----------------------------|

e|-----------0-----------0----|-----------0-----------0----|
B|--------0-----------0-------|--------0-----------0-------|
G|-----2-----------2----------|-----2-----------2----------|
D|----------------------------|--4-----------4-------------|
A|--0-----------0-------------|----------------------------|
E|----------------------------|----------------------------|

e|-----------0-----------0----|-----------0-----------0----|
B|-----4-----------4----------|-----4-----------4----------|
G|--------4-----------4-------|--------4-----------4-------|
D|--2-----------2-------------|----------------------------|
A|----------------------------|--4-----------4-------------|
E|----------------------------|----------------------------|

e|-----------0-----------0----|-----------0-----------0----|
B|--------0-----------0-------|--------0-----------0-------|
G|-----2-----------2----------|-----2-----------2----------|
D|----------------------------|--4-----------4-------------|
A|--0-----------0-------------|----------------------------|
E|----------------------------|----------------------------|

[Verse 1]

e|-----------0-----------0----|-----------0-----------0----|
B|-----4-----------4----------|-----4-----------4----------|
G|--------4-----------4-------|--------4-----------4-------|
D|--2-----------2-------------|--2-----------2-------------|
A|----------------------------|----------------------------|
E|----------------------------|----------------------------|

e|-----------0-----------0----|-----------0-----------0----|
B|-----4-----------4----------|-----4-----------4----------|
G|--------4-----------4-------|--------4-----------4-------|
D|----------------------------|----------------------------|
A|----------------------------|----------------------------|
E|--4-----------4-------------|--4-----------4-------------|

e|-----------0-----------0----|-----------0-----------0----|
B|-----4-----------4----------|-----4-----------4----------|
G|--------4-----------4-------|--------4-----------4-------|
D|----------------------------|----------------------------|
A|--0-----------0-------------|--0-----------0-------------|
E|----------------------------|----------------------------|

e|-----------0-----------0----|-----------0-----------0----|
B|--------0-----------0-------|--------0-----------0-------|
G|-----2-----------2----------|-----2-----------2----------|
D|--4-----------4-------------|--4-----------4-------------|
A|----------------------------|----------------------------|
E|----------------------------|----------------------------|

[Verse 2]

e|-----------0-----------0----|-----------0-----------0----|
B|--------0-----------0-------|--------0-----------0-------|
G|-----2-----------2----------|-----2-----------2----------|
D|----------------------------|----------------------------|
A|--0-----------0-------------|--0-----------0-------------|
E|----------------------------|----------------------------|

e|-----------0-----------0----|-----------0-----------0----|
B|-----4-----------4----------|-----4-----------4----------|
G|--------4-----------4-------|--------4-----------4-------|
D|----------------------------|----------------------------|
A|----------------------------|----------------------------|
E|--4-----------4-------------|--4-----------4-------------|

e|-----------0-----------0----|-----------0-----------0----|
B|--------0-----------0-------|--------0-----------0-------|
G|-----2-----------2----------|-----2-----------2----------|
D|--4-----------4-------------|--4-----------4-------------|
A|----------------------------|----------------------------|
E|----------------------------|----------------------------|

e|----------------------------|----------------------------|
B|--------2--0--------2--0----|--------2--0--------2--0----|
G|-----2-----------2----------|-----2-----------2----------|
D|----------------------------|----------------------------|
A|--2-----------2-------------|--2-----------2-------------|
E|----------------------------|----------------------------|

[Verse 3]

e|-----------0-----------0----|-----------0-----------0----|
B|-----4-----------4----------|-----4-----------4----------|
G|--------4-----------4-------|--------4-----------4-------|
D|--2-----------2-------------|--2-----------2-------------|
A|----------------------------|----------------------------|
E|----------------------------|----------------------------|

e|-----------0-----------0----|-----------0-----------0----|
B|-----4-----------4----------|-----4-----------4----------|
G|--------4-----------4-------|--------4-----------4-------|
D|----------------------------|----------------------------|
A|----------------------------|----------------------------|
E|--4-----------4-------------|--4-----------4-------------|

e|-----------0-----------0----|-----------0-----------0----|
B|-----4-----------4----------|-----4-----------4----------|
G|--------4-----------4-------|--------4-----------4-------|
D|----------------------------|----------------------------|
A|--0-----------0-------------|--0-----------0-------------|
E|----------------------------|----------------------------|

e|-----------0-----------0----|-----------0-----------0----|
B|--------0-----------0-------|--------0-----------0-------|
G|-----2-----------2----------|-----2-----------2----------|
D|--4-----------4-------------|--4-----------4-------------|
A|----------------------------|----------------------------|
E|----------------------------|----------------------------|

[Verse 4]

e|-----------0-----------0----|-----------0-----------0----|
B|--------0-----------0-------|--------0-----------0-------|
G|-----2-----------2----------|-----2-----------2----------|
D|----------------------------|----------------------------|
A|--0-----------0-------------|--0-----------0-------------|
E|----------------------------|----------------------------|

e|-----------0-----------0----|-----------3-----------3----|
B|-----4-----------4----------|--------2-----------2-------|
G|--------4-----------4-------|-----3-----------3----------|
D|----------------------------|--2-----------2-------------|
A|----------------------------|----------------------------|
E|--4-----------4-------------|----------------------------|

e|-----------0-----------0----|----------------------------|
B|--------0-----------0-------|--------2--0--------2--0----|
G|-----2-----------2----------|-----2-----------2----------|
D|--4-----------4-------------|----------------------------|
A|----------------------------|--2-----------2-------------|
E|----------------------------|----------------------------|

e|-----------0-----------0----|-----------0-----------0----|
B|-----4-----------4----------|-----4-----------4----------|
G|--------4-----------4-------|--------4-----------4-------|
D|--2-----------2-------------|--2-----------2-------------|
A|----------------------------|----------------------------|
E|----------------------------|----------------------------|

[Instrumental]

e|-----------0-----------0----|-----------0-----------0----|
B|--------0-----------0-------|--------0-----------0-------|
G|-----2-----------2----------|-----2-----------2----------|
D|----------------------------|----------------------------|
A|--0-----------0-------------|--0-----------0-------------|
E|----------------------------|----------------------------|

e|-----------0-----------0----|-----------0-----------0----|
B|-----4-----------4----------|-----4-----------4----------|
G|--------4-----------4-------|--------4-----------4-------|
D|----------------------------|----------------------------|
A|----------------------------|----------------------------|
E|--4-----------4-------------|--4-----------4-------------|

e|-----------0-----------0----|----------------------------|
B|--------0-----------0-------|--------2--0--------2--0----|
G|-----2-----------2----------|-----2-----------2----------|
D|--4-----------4-------------|----------------------------|
A|----------------------------|--2-----------2-------------|
E|----------------------------|----------------------------|

e|-----------0-----------0----|-----------0-----------0----|
B|-----4-----------4----------|-----4-----------4----------|
G|--------4-----------4-------|--------4-----------4-------|
D|--2-----------2-------------|--2-----------2-------------|
A|----------------------------|----------------------------|
E|----------------------------|----------------------------|

e|----------------------------|----------------------------|
B|--------2--0--------2--0----|--------2--0--------2--0----|
G|-----2-----------2----------|-----2-----------2----------|
D|----------------------------|----------------------------|
A|--0-----------0-------------|--0-----------0-------------|
E|----------------------------|----------------------------|

e|-----------0-----------0----|-----------0-----------0----|
B|-----4-----------4----------|-----4-----------4----------|
G|--------4-----------4-------|--------4-----------4-------|
D|----------------------------|----------------------------|
A|----------------------------|----------------------------|
E|--4-----------4-------------|--4-----------4-------------|

e|-----------0-----------0----|-----------0-----------0----|
B|--------0-----------0-------|--------0-----------0-------|
G|-----2-----------2----------|-----2-----------2----------|
D|--4-----------4-------------|--4-----------4-------------|
A|----------------------------|----------------------------|
E|----------------------------|----------------------------|

e|----------------------------|----------------------------|
B|--------2--0--------2--0----|--------2--0--------2--0----|
G|-----2-----------2----------|-----2-----------2----------|
D|----------------------------|----------------------------|
A|--2-----------2-------------|--2-----------2-------------|
E|----------------------------|----------------------------|

[Verse 5]

e|-----------0-----------0----|----------------------------|
B|-----4-----------4----------|--------2--0--------2--0----|
G|--------4-----------4-------|-----2-----------2----------|
D|--2-----------2-------------|----------------------------|
A|----------------------------|--0-----------0-------------|
E|----------------------------|----------------------------|

e|-----------0-----------0----|----------------------------|
B|-----4-----------4----------|--------2--0--------2--0----|
G|--------4-----------4-------|-----2-----------2----------|
D|--2-----------2-------------|----------------------------|
A|----------------------------|--0-----------0-------------|
E|----------------------------|----------------------------|

e|-----------0-----------0----|----------------------------|
B|--------0-----------0-------|--------2--0--------2--0----|
G|-----2-----------2----------|-----2-----------2----------|
D|--4-----------4-------------|----------------------------|
A|----------------------------|--2-----------2-------------|
E|----------------------------|----------------------------|

e|-----------0-----------0----|----------------------------|
B|-----4-----------4----------|--------2--0--------2--0----|
G|--------4-----------4-------|-----2-----------2----------|
D|--2-----------2-------------|----------------------------|
A|----------------------------|--0-----------2-------------|
E|----------------------------|----------------------------|

[Verse 6]

e|-----------0-----------0----|----------------------------|
B|-----4-----------4----------|--------2--0--------2--0----|
G|--------4-----------4-------|-----2-----------2----------|
D|--2-----------2-------------|----------------------------|
A|----------------------------|--0-----------0-------------|
E|----------------------------|----------------------------|

e|-----------0-----------0----|----------------------------|
B|-----4-----------4----------|--------2--0--------2--0----|
G|--------4-----------4-------|-----2-----------2----------|
D|--2-----------2-------------|----------------------------|
A|----------------------------|--0-----------0-------------|
E|----------------------------|----------------------------|

e|-----------0-----------0----|----------------------------|
B|--------0-----------0-------|--------2--0--------2--0----|
G|-----2-----------2----------|-----2-----------2----------|
D|--4-----------4-------------|----------------------------|
A|----------------------------|--2-----------2-------------|
E|----------------------------|----------------------------|

e|-----------0-----------0----|-----------0-----------0----|
B|-----4-----------4----------|-----4-----------4----------|
G|--------4-----------4-------|--------4-----------4-------|
D|--2-----------2-------------|----------------------------|
A|----------------------------|--4-----------4-------------|
E|----------------------------|----------------------------|

[Instrumental]

e|-----------0-----------0----|-----------0-----------0L---|
B|--------0-----------0-------|--------0-----------0-------|
G|-----2-----------2----------|-----2-----------2----------|
D|----------------------------|--4-----------4-------------|
A|--0-----------0-------------|----------------------------|
E|----------------------------|----------------------------|

e|--0L-0-----0-----------0----|-----------0-----------0----|
B|-----4--0--------4----------|-----4-----------4----------|
G|--------------------4-------|--------4-----------4-------|
D|--2-----------2-------------|----------------------------|
A|----------------------------|--4-----------4-------------|
E|----------------------------|----------------------------|

e|-----------0-----------0----|-----------0-----------0L---|--0-------------|
B|--------0-----------0-------|--------0-----------0-------|-----------4----|
G|-----2-----------2----------|-----2-----------2----------|--------1-------|
D|----------------------------|--4-----------4-------------|-----2----------|
A|--0-----------0-------------|----------------------------|----------------|
E|----------------------------|----------------------------|--0-------------|


e|-------||
B|--4----||
G|--4----||
D|--6----||
A|--7----||
E|--0----||

Legend:

L - tied note

            
            
Suggest correction
Creating personal tab
Creating personal tab
You can edit any tab online and save it as your Personal.

You can edit, replace or remove any tab part or add personal notes – all changes will be seen only by you.

Personal tabs can be accessed anytime from any device, even offline.
Learn more »
Give kudos to tab author, rate the tab!
1 2 3 4 5
comments
print report bad tab
guest
You may want to rate the tab now too:
select rating
Wanna post a correction for this tab? Suggest correction