Oops, an error
Loading. Please wait.

Overkill tab

version 2
version 2

Whole song

Interactive

202 views 6 this week
no commentswrite comment
1 2 3 4 5
3 more votes to show rating
add to favorites
×
Save as Personal and add changes to this tab that will be seen only by you. Learn more ›
×
You can save this tab as Personal to edit and correct it or add notes. All changes will be seen only by you. Learn more »
launch autoscroll
font size
0
reset
how to read this tab
guitar tuner
backing track
0:00
0:00
edit
Autoscroll
slow
fast
+/-
esc
set tempo
stop
Artist: Motörhead
Song: Overkill
Album: Overkill (1979)

-----------------------
Tabulature Legend
-----------------------
 h   - hammer-on
 p   - pull-off
 b   - bend
 PM  - palm muting
 LR  - let ring
 =   - hold bend; also acts as connecting device for hammers/pulls, etc.
 |*  - repeat x-times
 /   - slide up
 \   - slide down
 ~   - vibrato
 X   - dead note
 ()  - ghost note
---------------------------------------------------------------------------------------

[Intro]
Drums start                            Bass joins in
e| | |--------------------------------| |--------------------------------||
B| | *--------------------------------* *--------------------------------*|
G|4|5|--------------------------------|3|--------------------------------||
D|/|x|--------------------------------|x|--------------------------------||
A|4| *--------------------------------* *--------------------------------*|
E| | |--------------------------------| |--------------------------------||

Guitar 1 + 2
e|-------------------------------|
B|-------------------------------|
G|-------------------------------|
D|--14--------------s/--------X--|
A|--14--------------s/--------X--|
E|--12--------------s/--------X--|
    LR.............|

e| |----------------------------------------||
B| *----------------------------------------*|
G|4|---9---9---9--9--9--9---9--9---9---7----||
D|x|---9---9---9--9--9--9---9--9---9---7----||
A| *---7---7---7--7--7--7---7--7---7---5----*|
E| |----------------------------------------||

[Verse 1]
e|----------------------------- ---|------------------------------|
B|------------------------------ --|------------------------------|
G|--12------------------------ 14--|--12---------------------14---|
D|--12------------------------ 14--|--12---------------------14---|
A|--10------------------------ 12--|--10---------------------12---|
E|------------------------------- -|------------------------------|
    LR.......................|        LR...................|
   "Only way to feel the noise is     when it's good and loud,
    
e|---------------------------------|--------------------------------|
B|---------------------------------|--------------------------------|
G|--12------------------------14---|--12----------------------------|
D|--12------------------------14---|--12------------------------12--|
A|--10------------------------12---|--10------------------------12--|
E|---------------------------------|----------------------------10--|
    LR.......................|        LR.......................|
    So good you can't believe it's    screaming with the crowd,

[Pre-Chorus]
e||-------------------------------|---------------------------------|
B|*-------------------------------|---------------------------------|
G||-------------------------------|---------------------------------|
D||--10---10----------------------|--10---10------------------------|
A|*--10---10----------------------|--10---10------------------------|
E||---8----8----------------------|---8----8------------------------|
          LR.....................|        LR......................|
                Don't sweat it,                 get it back to you,

e|-----------------------------------|-----------------------------------||
B|-----------------------------------|-----------------------------------*|
G|------14--12------------12--12--14-|------14--12------------12--12-----||
D|------14--12------------12--12--14-|------14--12------------12--12--12-||
A|------12--10------------10--10--12-|------12--10------------10--10--12-*|
E|--0-----------0--0---0-------------|--0-----------0--0---0----------10-||
    PM          PM.....|                PM          PM.....|

[Chorus]
e|---------------------|----------------------------|
B|---------------------|----------------------------|
G|---------------------|--4----2----4----2----4---2-|
D|--4---4--------------|--4----2----4----2----4---2-|
A|--4---4--------------|--2----0----2----0----2---0-|
E|--2---2--------------|----------------------------|
        LR............| 
           "Overkill!"

e|---------------------|-----------------------------------|
B|---------------------|-----------------------------------|
G|---------------------|--7---7--7---7---7--7---7---7---8--|
D|--4---4--------------|--7---7--7---7---7--7---7---7---8--|
A|--4---4--------------|--5---5--5---5---5--5---5---5---6--|
E|--2---2--------------|-----------------------------------|
        LR............|
           "Overkill!"

e||---------------------------------------||--------------------------------------|
B|*---------------------------------------*|--------------------------------------|
G||---7---9---9--9--9--9---9--9---7---9---||--7---9---9--9--9--9---9--9---7---14--|
D||---7---9---9--9--9--9---9--9---7---9---||--7---9---9--9--9--9---9--9---7---14--|
A|*---5---7---7--7--7--7---7--7---5---7---*|--5---7---7--7--7--7---7--7---5---12--|
E||---------------------------------------||--------------------------------------|

[Verse 2]
e|----------------------------- ---|------------------------------|
B|------------------------------ --|------------------------------|
G|--12------------------------ 14--|--12---------------------14---|
D|--12------------------------ 14--|--12---------------------14---|
A|--10------------------------ 12--|--10---------------------12---|
E|---------------------------------|------------------------------|
    LR.......................|        LR...................|
    Onyourfeet youfeelthebeat, it     goesstraighttoyourspine,

e|---------------------------------|--------------------------------|
B|---------------------------------|--------------------------------|
G|--12------------------------14---|--12----------------------------|
D|--12------------------------14---|--12------------------------12--|
A|--10------------------------12---|--10------------------------12--|
E|---------------------------------|----------------------------10--|
    LR.......................|        LR.......................|
   Shake your head you must be dead if it don't make you fly,

[Pre-Chorus]
e||-------------------------------|---------------------------------|
B|*-------------------------------|---------------------------------|
G||-------------------------------|---------------------------------|
D||--10---10----------------------|--10---10------------------------|
A|*--10---10----------------------|--10---10------------------------|
E||---8----8----------------------|---8----8------------------------|
          LR.....................|        LR......................|
                Don't sweat it,                 get it back to you,

e|-----------------------------------|-----------------------------------||
B|-----------------------------------|-----------------------------------*|
G|------14--12------------12--12--14-|------14--12------------12--12-----||
D|------14--12------------12--12--14-|------14--12------------12--12--12-||
A|------12--10------------10--10--12-|------12--10------------10--10--12-*|
E|--0-----------0--0---0-------------|--0-----------0--0---0----------10-||
    PM          PM.....|                PM          PM.....|

[Chorus]
e|---------------------|----------------------------|
B|---------------------|----------------------------|
G|---------------------|--4----2----4----2----4---2-|
D|--4---4--------------|--4----2----4----2----4---2-|
A|--4---4--------------|--2----0----2----0----2---0-|
E|--2---2--------------|----------------------------|
        LR............| 
           "Overkill!"

e|---------------------|-----------------------------------|
B|---------------------|-----------------------------------|
G|---------------------|--7---7--7---7---7--7---7---7---8--|
D|--4---4--------------|--7---7--7---7---7--7---7---7---8--|
A|--4---4--------------|--5---5--5---5---5--5---5---5---6--|
E|--2---2--------------|-----------------------------------|
        LR............|
           "Overkill!"

[Solo]
e| |------------------------------------||
B| *------------------------------------*|
G|8|------------------------------------||
D|x|---7---7--7---7---7--7---7---7---5--||
A| *---7---7--7---7---7--7---7---7---5--*|
E| |---5---5--5---5---5--5---5---5---3--||

[Solo]
e|---------------------------------------------------|---------------------------------------|
B|---------------------------------------------------|--8-----------7---------5--------------|
G|--------------------------------------5b5,5------5-|--7b8---7--5--7---5-----5---------9----|
D|--5--7--7--7--7--7--7--7--7--7--7--7----------7----|---------------------7------7--5--7----|
A|---------------------------------------------------|---------------------------------------|
E|---------------------------------------------------|---------------------------------------|

e|---------------------------------------------------|-------5-------5-------5-------5-------5-|
B|--5------------------------5-----------------------|-------5-------5-------5-------5-------5-|
G|--5---------------5--------5---------------5-------|--7b9-----7b9-----7b9-----7b9-----7b9----|
D|------5--7--5--7-----5--7------5--7--5--7-----5--7-|-----------------------------------------|
A|---------------------------------------------------|-----------------------------------------|
E|---------------------------------------------------|-----------------------------------------|

e|-------------------------------------------------|------------------------------------------|
B|--8--8--8--8--8--8--8--8--8--8--8--8--8--8--8--8-|--8--8--8--8--10--10--10--10--8/====/11---|
G|--9--9--9--9--9--9--9--9--9--9--9--9--9--9--9--9-|--9--9--9--9--11--11--11--11--9/====/12---|
D|-------------------------------------------------|------------------------------------------|
A|-------------------------------------------------|------------------------------------------|
E|-------------------------------------------------|------------------------------------------|

e|--------------------------------------------|---------------------------------------------|
B|--------------------------12----------------|--12-----------------------------------------|
G|--12-12-12-12-14-14-12-14-14b16--14--12--12-|--14b16--14--12h14p12----12-14b16--14--12--9-|
D|--------------------------------------------|----------------------14----14b16--14--12--9-|
A|--------------------------------------------|---------------------------------------------|
E|--------------------------------------------|---------------------------------------------|

Guitar 1 + 2
e| |----------------------------------------||
B| *----------------------------------------*|
G|4|---9---9---9--9--9--9---9--9---9---7----||
D|x|---9---9---9--9--9--9---9--9---9---7----||
A| *---7---7---7--7--7--7---7--7---7---5----*|
E| |----------------------------------------||

[Verse 3]
e||----------------------------- ---|------------------------------|
B|*------------------------------ --|------------------------------|
G||--12------------------------ 14--|--12---------------------14---|
D||--12------------------------ 14--|--12---------------------14---|
A|*--10------------------------ 12--|--10---------------------12---|
E||------------------------------- -|------------------------------|
    LR.......................|        LR...................|
    Knowyourbody'smadetomove,  feel    it   in    your   guts 

e|---------------------------------|--------------------------------||
B|---------------------------------|--------------------------------*|
G|--12------------------------14---|--12----------------------------||
D|--12------------------------14---|--12------------------------12--||
A|--10------------------------12---|--10------------------------12--*|
E|---------------------------------|----------------------------10--||
    LR.......................|        LR.......................|
    Rock'n'rollain'tworththename if   it  don't make you strut,


[Pre-Chorus]
e||-------------------------------|---------------------------------|
B|*-------------------------------|---------------------------------|
G||-------------------------------|---------------------------------|
D||--10---10----------------------|--10---10------------------------|
A|*--10---10----------------------|--10---10------------------------|
E||---8----8----------------------|---8----8------------------------|
          LR.....................|        LR......................|
                Don't sweat it,                 get it back to you,

e|-----------------------------------|-----------------------------------||
B|-----------------------------------|-----------------------------------*|
G|------14--12------------12--12--14-|------14--12------------12--12-----||
D|------14--12------------12--12--14-|------14--12------------12--12--12-||
A|------12--10------------10--10--12-|------12--10------------10--10--12-*|
E|--0-----------0--0---0-------------|--0-----------0--0---0----------10-||
    PM          PM.....|                PM          PM.....|

[Chorus]
e|---------------------|----------------------------|
B|---------------------|----------------------------|
G|---------------------|--4----2----4----2----4---2-|
D|--4---4--------------|--4----2----4----2----4---2-|
A|--4---4--------------|--2----0----2----0----2---0-|
E|--2---2--------------|----------------------------|
        LR............| 
           "Overkill!"

e|---------------------|-----------------------------------|
B|---------------------|-----------------------------------|
G|---------------------|--7---7--7---7---7--7---7---7---8--|
D|--4---4--------------|--7---7--7---7---7--7---7---7---8--|
A|--4---4--------------|--5---5--5---5---5--5---5---5---6--|
E|--2---2--------------|-----------------------------------|
        LR............|
           "Overkill!"

[Solo]
e| |----------------------------------|------------------------------|
B| *----------------------------------|------------------------------|
G|4|--9---9---9--9---9---9---9--9---9-|--7---7---7--7---7---7--7---7-|
D|x|--9---9---9--9---9---9---9--9---9-|--7---7---7--7---7---7--7---7-|
A| *--7---7---7--7---7---7---7--7---7-|--5---5---5--5---5---5--5---5-|
E| |----------------------------------|------------------------------|

e|------------------------------|---------------------------------||
B|------------------------------|---------------------------------*|
G|--5---5---5--5---5---5--5---5-|--5-----4-----5-----4-----5---7--||
D|--5---5---5--5---5---5--5---5-|--5-----4-----5-----4-----5---7--||
A|--3---3---3--3---3---3--3---3-|--3-----2-----3-----2-----3---5--*|
E|------------------------------|---------------------------------||

e|--------------------------------|----------------------|----------------------|-----------------------|
B|--------------------------------|----------------------|----------------------|-----------------------|
G|--9---9---9---9---9---9---9---9-|----------------------|----------------------|-----------------------|
D|--9---9---9---9---9---9---9---9-|----------------------|----------------------|-----------------------|
A|--7---7---7---7---7---7---7---7-|----------------------|----------------------|-----------------------|
E|--0---0---0---0---0---0---0---0-|----------------------|----------------------|-----------------------|
                                LR...........|

[Solo]
e|--------------------------------------------------|
B|--15b17-15b17-15b17-15b17-15b17-15b17-15b17-15b17-|
G|--------------------------------------------------|
D|--------------------------------------------------|
A|--------------------------------------------------|
E|--------------------------------------------------|

e|--12h15p12----12h15p12----12h15p12-------------------------------|
B|-----------15----------15----------15-12h15p12----12h15p12----12-|
G|-----------------------------------------------14----------14----|
D|-----------------------------------------------------------------|
A|-----------------------------------------------------------------|
E|-----------------------------------------------------------------|

e|-------------------------------------------------------------------------|
B|--12h15p12----12----12h15p12----12----12h15p12----12---------------------|
G|-----------14----14----------14----14----------14----14p12h14p12----12---|
D|-----------------------------------------------------------------14----14|
A|-------------------------------------------------------------------------|
E|-------------------------------------------------------------------------|

e|--------------------------------------|------------------------------------------------|
B|--15-----------15-----------15--------|------------------------------------------------|
G|--14b16---14---14b16---14---14b16--14-|--12-----------12-------12--------------12------|
D|--------------------------------------|------14-12-14----12-14-----12h14p12-14----12-14|
A|--------------------------------------|------------------------------------------------|
E|--------------------------------------|------------------------------------------------|

e|---------------------------------------------------|---------------------------------------------------|
B|--10b12-----10b12-----10b12-----10b12-----10b12----|--15----------------------15-----------------------|
G|--10b12--9--10b12--9--10b12--9--10b12--9--10b12--9-|--14--14---12-14-12----12-14b16--14--12-14-12----12|
D|---------------------------------------------------|--------------------14------------------------14---|
A|---------------------------------------------------|---------------------------------------------------|
E|---------------------------------------------------|---------------------------------------------------|

e|--------12-------12-------12-------12-------12-|--12----14----15----14----12----14----15----14-----|
B|--12----12-12----12-12----12-12----12-12----12-|--15b17-17b19-18b20-17b19-15b17-17b19-18b20-17b19--|
G|--14b16----14b16----14b16----14b16----14b16----|---------------------------------------------------|
D|-----------------------------------------------|---------------------------------------------------|
A|-----------------------------------------------|---------------------------------------------------|
E|-----------------------------------------------|---------------------------------------------------|

e|--12----14----15----14----12----14----15----14-----|--12----14----15----14----12----14----15----14-----|
B|--15b17-17b19-18b20-17b19-15b17-17b19-18b20-17b19--|--15b17-17b19-18b20-17b19-15b17-17b19-18b20-17b19--|
G|---------------------------------------------------|---------------------------------------------------|
D|---------------------------------------------------|---------------------------------------------------|
A|---------------------------------------------------|---------------------------------------------------|
E|---------------------------------------------------|---------------------------------------------------|

e|--12------12------12------12------12------|--12-----------------------------|
B|--15b17---15b17---15b17---15b17---15b17---|--15b17~~~~~~~~~-17--------------|
G|------------------------------------------|---------------------------------|
D|------------------------------------------|---------------------------------|
A|------------------------------------------|---------------------------------|
E|------------------------------------------|---------------------------------|

e|---------------------------------------------|----------------------------------|
B|--15b17-15p12h15--15b17-15p12h15--15b17-15p12|-h15--15b17-15p12h15--15b17-15p12-|
G|---------------------------------------------|----------------------------------|
D|---------------------------------------------|----------------------------------|
A|---------------------------------------------|----------------------------------|
E|---------------------------------------------|----------------------------------|

e|--12------12------12------12------12------12-----12----|
B|--15b17---15b17---15b17---15b17---15b17---15b17--15b17-|
G|-------------------------------------------------------|
D|-------------------------------------------------------|
A|-------------------------------------------------------|
E|-------------------------------------------------------|

e|--12-----------------|----------------------|----------------------|-----------------------|
B|--15b17--------------|----------------------|----------------------|-----------------------|
G|---------------------|----------------------|----------------------|-----------------------|
D|---------------------|----------------------|----------------------|-----------------------|
A|---------------------|----------------------|----------------------|-----------------------|
E|---------------------|----------------------|----------------------|-----------------------|
    LR......................|

[Break]
Drums start again
e|---------------------|----------------------|----------------------|-----------------------|
B|---------------------|----------------------|----------------------|-----------------------|
G|---------------------|----------------------|----------------------|-----------------------|
D|---------------------|----------------------|----------------------|-----------------------|
A|---------------------|----------------------|----------------------|-----------------------|
E|---------------------|----------------------|----------------------|-----------------------|

Bass joins in
e|-------------------------------|---------------------------------|
B|-------------------------------|---------------------------------|
G|-------------------------------|---------------------------------|
D|-------------------------------|---------------------------------|
A|-------------------------------|---------------------------------|
E|-------------------------------|---------------------------------|

Guitar 1 + 2
e|-------------------------------|---------------------------------|
B|-------------------------------|---------------------------------|
G|-------------------------------|---------------------------------|
D|--14---------------------------|----------------------/--/2------|
A|--14---------------------------|----------------------/--/2------|
E|--12---------------------------|----------------------/--/0------|
    LR.................................................|

[Solo]
e|----------------------------------|------------------------------|
B|----------------------------------|------------------------------|
G|--9---9---9--9---9---9---9--9---9-|--7---7---7--7---7---7--7---7-|
D|--9---9---9--9---9---9---9--9---9-|--7---7---7--7---7---7--7---7-|
A|--7---7---7--7---7---7---7--7---7-|--5---5---5--5---5---5--5---5-|
E|----------------------------------|------------------------------|

e|------------------------------|---------------------------------|
B|------------------------------|---------------------------------|
G|--5---5---5--5---5---5--5---5-|--5-----4-----5-----4-----5---7--|
D|--5---5---5--5---5---5--5---5-|--5-----4-----5-----4-----5---7--|
A|--3---3---3--3---3---3--3---3-|--3-----2-----3-----2-----3---5--|
E|------------------------------|---------------------------------|

e|----------------------------------|-------------------------------|
B|----------------------------------|-------------------------------|
G|--9---9---9--9---9---9---9--9---9-|-------------------------------|
D|--9---9---9--9---9---9---9--9---9-|--11--11-11--11--11--11-11--11-|
A|--7---7---7--7---7---7---7--7---7-|---9---9--9---9---9---9--9---9-|
E|----------------------------------|-------------------------------|

e|-----------------------------------|---------------------------------|
B|-----------------------------------|---------------------------------|
G|--12--12--12-12--12--12--12-12--12-|--14----12----14----12----14--12-|
D|--12--12--12-12--12--12--12-12--12-|--14----12----14----12----14--12-|
A|--10--10--10-10--10--10--10-10--10-|--12----10----12----10----12--10-|
E|-----------------------------------|---------------------------------|

e||----------------------------------|------------------------------|
B|*----------------------------------|------------------------------|
G||--9---9---9--9---9---9---9--9---9-|--7---7---7--7---7---7--7---7-|
D||--9---9---9--9---9---9---9--9---9-|--7---7---7--7---7---7--7---7-|
A|*--7---7---7--7---7---7---7--7---7-|--5---5---5--5---5---5--5---5-|
E||----------------------------------|------------------------------|

e|------------------------------|---------------------------------||
B|------------------------------|---------------------------------*|
G|--5---5---5--5---5---5--5---5-|--5-----4-----5-----4-----5---7--||
D|--5---5---5--5---5---5--5---5-|--5-----4-----5-----4-----5---7--||
A|--3---3---3--3---3---3--3---3-|--3-----2-----3-----2-----3---5--*|
E|------------------------------|---------------------------------||

e|--------------------------------|----------------------|----------------------|-----------------------|
B|--------------------------------|----------------------|----------------------|-----------------------|
G|--9---9---9---9---9---9---9---9-|----------------------|----------------------|-----------------------|
D|--9---9---9---9---9---9---9---9-|----------------------|----------------------|-----------------------|
A|--7---7---7---7---7---7---7---7-|----------------------|----------------------|-----------------------|
E|--0---0---0---0---0---0---0---0-|----------------------|----------------------|-----------------------|
                                LR...........|

[Solo]
e|--------12-------12-------12-------12-------12-|--------12-------12-------12-------12-------12-|
B|--------12-------12-------12-------12-------12-|--------12-------12-------12-------12-------12-|
G|--14b16----14b16----14b16----14b16----14b16----|--14b16----14b16----14b16----14b16----14b16----|
D|-----------------------------------------------|-----------------------------------------------|
A|-----------------------------------------------|-----------------------------------------------|
E|-----------------------------------------------|-----------------------------------------------|

e|--------12-------12-------12-------12-------12-|--------------------------------------------|
B|--------12-------12-------12-------12-------12-|-----------------12-------12-------12-------|
G|--14b16----14b16----14b16----14b16----14b16----|--14b16----14----14b16----14b16----14b16----|
D|-----------------------------------------------|--------------------------------------------|
A|-----------------------------------------------|--------------------------------------------|
E|-----------------------------------------------|--------------------------------------------|

                                                     (w/wha ->)
e|--------12-------12-------12-------12------------|------------------------------------------|
B|--------12-------12-------12-------12---------12-|--12--------------------------------------|
G|--14b16----14b16----14b16----14b16----14-12------|--14b16----14----12--------------------12~|
D|--------------------------------------------14---|-----------------------14--------12-14----|
A|-------------------------------------------------|---------------------------12-14----------|
E|-------------------------------------------------|------------------------------------------|

e|---------------------------------------|----------------------------------------------|
B|--12-----------------------------------|----------------------------------------------|
G|--14b16---14---12-------------------12~|----------------------------------------------|
D|--------------------14--------12-14----|--14b16~~~14b16~~r14b16~~~14b16~~r14-------12-|
A|------------------------12-14----------|-------------------------------------12-14----|
E|---------------------------------------|----------------------------------------------|

e|---------------------------------|--------------------------------------|
B|---------------------------------|--------------------------------------|
G|---------------12--------14b16---|--14b16r14-12h14~~~-14b16r14-12h14~~~-|
D|--14~~~~~~~--------14p12---------|--------------------------------------|
A|---------------------------------|--------------------------------------|
E|---------------------------------|--------------------------------------|

e|--------------------------------------------------------------------|
B|--------------------------------------------------------------------|
G|--14p12----12-14-12-12-14-12-12----12-12-14-12-12-14-12-12-14-12----|
D|--------14----------------------14-------------------------------14-|
A|--------------------------------------------------------------------|
E|--------------------------------------------------------------------|

e|---------------------------------------|-----------------------------------------------------|
B|---------------------------------------|--15-----------15-----------15-----------15----------|
G|--14----14----14b16----14----14b16--14-|--14b16--14-12-14b16--14-12-14b16--14-12-14b16--14-12|
D|---------------------------------------|-----------------------------------------------------|
A|---------------------------------------|-----------------------------------------------------|
E|---------------------------------------|------------------------------------------------------|

e|-15-----------15-----------15-----------15----------|-15-----------15-----------15-----------15----------|
B|-14b16--14-12-14b16--14-12-14b16--14-12-14b16--14-12|-14b16--14-12-14b16--14-12-14b16--14-12-14b16--14-12|
G|----------------------------------------------------|----------------------------------------------------|
D|----------------------------------------------------|----------------------------------------------------|
A|----------------------------------------------------|----------------------------------------------------|
E|----------------------------------------------------|----------------------------------------------------|

e|--12-----12-----12-----12-----12-----12----|--12-----------------------------|
B|--15b17--15b17--15b17--15b17--15b17--15b17-|--15b17--------------------------|
G|-------------------------------------------|---------------------------------|
D|-------------------------------------------|---------------------------------|
A|-------------------------------------------|---------------------------------|
E|-------------------------------------------|---------------------------------|

e|--------------------------------------|---------------------------------|
B|--------------------------------------|---------------------------------|
G|--------------------------------------|---------------------------------|
D|--15\14\13\12\11\10\9\8\7\6\5\4\3\2\0-|---------------------------------|
A|--X--X--X--X--X--X--X-X-X-X-X-X-X-X-X-|---------------------------------|
E|--15\14\13\12\11\10\9\8\7\6\5\4\3\2\0-|--0~~~~~~~~----------------------|

[Break]
Drums start again
e|---------------------|----------------------|----------------------|-----------------------|
B|---------------------|----------------------|----------------------|-----------------------|
G|---------------------|----------------------|----------------------|-----------------------|
D|---------------------|----------------------|----------------------|-----------------------|
A|---------------------|----------------------|----------------------|-----------------------|
E|---------------------|----------------------|----------------------|-----------------------|

Bass joins in
e|-------------------------------|---------------------------------|
B|-------------------------------|---------------------------------|
G|-------------------------------|---------------------------------|
D|-------------------------------|---------------------------------|
A|-------------------------------|---------------------------------|
E|-------------------------------|---------------------------------|

Guitar 1 + 2
e|-------------------------------|---------------------------------|
B|-------------------------------|---------------------------------|
G|-------------------------------|---------------------------------|
D|--14---------------------------|----------------------/--/2------|
A|--14---------------------------|----------------------/--/2------|
E|--12---------------------------|----------------------/--/0------|
    LR.................................................|

[Solo]
e| |----------------------------------|------------------------------|
B| *----------------------------------|------------------------------|
G|4|--9---9---9--9---9---9---9--9---9-|--7---7---7--7---7---7--7---7-|
D|x|--9---9---9--9---9---9---9--9---9-|--7---7---7--7---7---7--7---7-|
A| *--7---7---7--7---7---7---7--7---7-|--5---5---5--5---5---5--5---5-|
E| |----------------------------------|------------------------------|

e|------------------------------|---------------------------------||
B|------------------------------|---------------------------------*|
G|--5---5---5--5---5---5--5---5-|--5-----4-----5-----4-----5---7--||
D|--5---5---5--5---5---5--5---5-|--5-----4-----5-----4-----5---7--||
A|--3---3---3--3---3---3--3---3-|--3-----2-----3-----2-----3---5--*|
E|------------------------------|---------------------------------||

[Solo]
e|--12--12--12-12-12-12--12-12--12--12-|--14--14--14-14-14-14--14-14--14--14-|
B|-------------------------------------|-------------------------------------|
G|---9---9---9--9--9--9---9--9---9---9-|--11--11--11-11-11-11--11-11--11--11-|
D|-------------------------------------|-------------------------------------|
A|-------------------------------------|-------------------------------------|
E|-------------------------------------|-------------------------------------|

e|--15--15--15-15-15-15--15-15--15--15-|--17----15----17----15----17--15-|
B|-------------------------------------|---------------------------------|
G|--12--12--12-12-12-12--12-12--12--12-|--14----12----14----12----14--12-|
D|-------------------------------------|---------------------------------|
A|-------------------------------------|---------------------------------|
E|-------------------------------------|---------------------------------|

e|--12--12--12-12-12-12--12-12--12--12-|--14--14--14-14-14-14--14-14--14--14-|
B|-------------------------------------|-------------------------------------|
G|---9---9---9--9--9--9---9--9---9---9-|--11--11--11-11-11-11--11-11--11--11-|
D|-------------------------------------|-------------------------------------|
A|-------------------------------------|-------------------------------------|
E|-------------------------------------|-------------------------------------|

e|--15--15--15-15-15-15--15-15--15--15-|--17-17-17-15----17----15----17--15-|
B|-------------------------------------|------------------------------------|
G|--12--12--12-12-12-12--12-12--12--12-|--14-14-14-12----14----12----14--12-|
D|-------------------------------------|------------------------------------|
A|-------------------------------------|------------------------------------|
E|-------------------------------------|------------------------------------|

e|--12------14--- --15------14------|--12------14--- --15------14------|
B|--15b17---17b19---18b20---17b19---|--15b17---17b19---18b20---17b19---|
G|----------------------------------|----------------------------------|
D|----------------------------------|----------------------------------|
A|----------------------------------|----------------------------------|
E|----------------------------------|----------------------------------|

e|--12-----12-----12-----12-----12----12----|--12------14--- --15------14------|
B|--15b17--15b17--15b17--15b17--15b17-15b17-|--15b17---17b19---18b20---17b19---|
G|------------------------------------------|----------------------------------|
D|------------------------------------------|----------------------------------|
A|------------------------------------------|----------------------------------|
E|------------------------------------------|----------------------------------|

e|--12------14--- --15------14------|--12------14--- --15------14------|
B|--15b17---17b19---18b20---17b19---|--15b17---17b19---18b20---17b19---|
G|----------------------------------|----------------------------------|
D|----------------------------------|----------------------------------|
A|----------------------------------|----------------------------------|
E|----------------------------------|----------------------------------|

e|--12-----12-----12-----12-----12----12----|--12------------------------------|
B|--15b17--15b17--15b17--15b17--15b17-15b17-|--15b17---------------------------|
G|------------------------------------------|----------------------------------|
D|------------------------------------------|----------------------------------|
A|------------------------------------------|----------------------------------|
E|------------------------------------------|----------------------------------|

e|--------------------------------------|
B|--------------------------------------|
G|--------------------------------------|
D|--15\14\13\12\11\10\9\8\7\6\5\4\3\2\0-|
A|--X--X--X--X--X--X--X-X-X-X-X-X-X-X-X-|
E|--15\14\13\12\11\10\9\8\7\6\5\4\3\2\0-|

[Outro]
 Guitar 1
e|--------------------------------|----------------------|
B|--------------------------------|----------------------|
G|--------------------------------|----------------------|
D|--2-----------------------------|----------------------|
A|--2-----------------------------|----------------------|
E|--0-----------------------------|----------------------|
 
 Guitar 2
e|--------------------------------|----------------------|
B|--------------------------------|----------------------|
G|--9---9---9---9---9---9---9---9-|----------------------|
D|--9---9---9---9---9---9---9---9-|----------------------|
A|--7---7---7---7---7---7---7---7-|----------------------|
E|--0---0---0---0---0---0---0---0-|----------------------|
                                 LR...........|

Guitar 1 + 2
e||--------------------------------|----------------------||
B|*--------------------------------|----------------------*|
G||--9---9---9---9---9---9---9---9-|----------------------||
D||--9---9---9---9---9---9---9---9-|----------------------||
A|*--7---7---7---7---7---7---7---7-|----------------------*|
E||--0---0---0---0---0---0---0---0-|----------------------||
                                 LR...........|

e|----------------------|-----------------------|
B|----------------------|-----------------------|
G|-----2----------------|--9--------------------|
D|-----2----------------|--9--------------------|
A|-----0----------------|--7--------------------|
E|----------------------|--0--------------------|

            
            
Suggest correction
Creating personal tab
Creating personal tab
You can edit any tab online and save it as your Personal.

You can edit, replace or remove any tab part or add personal notes – all changes will be seen only by you.

Personal tabs can be accessed anytime from any device, even offline.
Learn more »
Give kudos to tab author, rate the tab!
1 2 3 4 5
comments
print report bad tab
guest
You may want to rate the tab now too:
select rating
Wanna post a correction for this tab? Suggest correction