Oops, an error
Loading. Please wait.

Maché Bécif tab

709 views 54 this week
no commentswrite comment
1 2 3 4 5
2 more votes to show rating
add to favorites
×
Save as Personal and add changes to this tab that will be seen only by you. Learn more ›
×
You can save this tab as Personal to edit and correct it or add notes. All changes will be seen only by you. Learn more »
launch autoscroll
font size
0
reset
how to read this tab
guitar tuner
edit
Autoscroll
slow
fast
+/-
esc
set tempo
stop
About this tab version
Easy to read because intro and instrumental parts are with chords. This specific tab is based off the acoustic session played at Ouagadougou. Was this info helpful? Yes No
Tablature complète, tiré de la vidéo de leur session acoustique à Ouagadoudou:
https://www.youtube.com/watch?v=euQZAzLCp58

[Intro]
e|--------------------------|
B|------3-1------3-1------3-|
G|------2-2----2-2-2------0-|
D|----2------3--------------|
A|--0-------------------2---|
E|--------------------3-----|

[Verse]                                                                   Laisser un demi-temps |
e|------------------------------------|--------------------------------|---------------------------------3-|
B|------3-1------3-1------3-3-3-3-1-3-|------3-1------3-1------3-3-1-0-|------3-1------3-1------3--3-3-1---|
G|------2-2----2-2-2------0-0-0-0-0-0-|------2-2----2-2-2------0-0-0-0-|------2-2----2-2-2------0--0-0-0---|
D|----2------3------------------------|----2------3--------------------|----2------3-----------------------|
A|--0-------------------2-------------|--0-------------------2---------|--0-------------------2------------|
E|--------------------3---------------|--------------------3-----------|--------------------3--------------|

                                               Hammer-on/Pull-off (0-1-0)   x3 (4 fois donc)
e|--------------------------------| ----------------------------------------- |
B|------3-1------3-1------3-3-1-0-|.------3-1------3-1------3-0------0-1-0---.|
G|------2-2----2-2-2------0-0-0-0-| ------2-2----2-2-2------0-0------------0- |
D|----2------3--------------------| ----2------3----------------------------- |
A|--0-------------------2---------|.--0-------------------2--------2---------.|
E|--------------------3-----------| --------------------3--------3----------- |

           Hammer-on/Pull-off (0-1-0)   x2 (donc 3 fois)
e| ------------------------------------ |------------------------------------|
B|.------1--------1--------3-----0-1-0-.|-----1--------1--------1------------|
G| ---2---2----2---2------------------- |---2---2----2---2----0---0------1---|
D| ----------3------------------------- |----------3-------------------------|
A|.--0-------------------2-----2-------.|-0-----------------3----------2---2-|
E| -------------------3-----3---------- |----------------------------0-------|

                                        x6 (donc 7 fois)              Laisser sonner un temps
e| ------------------------------------ |-----------------------------0-|
B|.------3-1------3-1------3-0-----1-0-.|------3-1------3-1------3-0--0-|
G| ------2-2----2-2-2------0-0-----0-0- |------2-2----2-2-2------0-0--1-|
D| ----2------3------------------------ |----2------3-----------------2-|
A|.--0-------------------2-------2-----.|--0-------------------2------2-|
E| --------------------3-------3------- |--------------------3--------0-|

                      x11          Laisser sonner un demi-temps les 2 derniers accords
e|--5-5--1-1--3-3-3-3-|--5-5--1-1--3--0-|
B|--5-5--1-1--3-3-3-3-|--5-5--1-1--3--0-|
G|--5-5--2-2--4-4-4-4-|--5-5--2-2--4--1-|
D|--7-7--3-3--5-5-5-5-|--7-7--3-3--5--2-|
A|--7-7--3-3--5-5-5-5-|--7-7--3-3--5--2-|
E|--5-5--1-1--3-3-3-3-|--5-5--1-1--3--0-|

[Outro]
             Hammer-on/Pull-off (0-1-0) x2                            Laisser sonner la dernière note
e| ------------------------------------ |--------------------------------------------|
B|.------1--------1--------3-----0-1-0-.|------1--------1--------1-----------------1-|
G| ----2---2----2---2------------------ |----2---2----2---2----0---0------1------2---|
D| -----------3------------------------ |-----------3--------------------------------|
A|.--0-------------------2-----2-------.|--0-----------------3----------2---2--0-----|
E| --------------------3-----3--------- |-----------------------------0--------------| 
Suggest correction
Creating personal tab
Creating personal tab
You can edit any tab online and save it as your Personal.

You can edit, replace or remove any tab part or add personal notes – all changes will be seen only by you.

Personal tabs can be accessed anytime from any device, even offline.
Learn more »
Give kudos to tab author, rate the tab!
1 2 3 4 5
comments
print report bad tab
guest
Wanna post a correction for this tab? Suggest correction