Oops, an error
Loading. Please wait.

ノ・レ・な・いTeen-Age bass

22 views 1 this week
no commentswrite comment
1 2 3 4 5
1 last vote to show rating
add to favorites
×
Save as Personal and add changes to this tab that will be seen only by you. Learn more ›
×
You can save this tab as Personal to edit and correct it or add notes. All changes will be seen only by you. Learn more »
launch autoscroll
font size
0
reset
guitar tuner
edit
Autoscroll
slow
fast
+/-
esc
set tempo
stop
Author
Difficulty
[Intro]
G|-------------------------|
D|-------------------------|
A|-------------------------|
E|-2---2---2---2--2-2-2-2-2|

G|----------------|----------------|----------------|----------------|
D|----------------|----------------|----------------|----------------|
A|-2-2-2-2-2-2-2-2|-2-2-2-2-2-2-2-2|-0-0-0-0-0-0-0-0|-0-0-0-0-0-0-0-0|
E|----------------|----------------|----------------|----------------|

G|----------------|----------------|----------------|------------|
D|----------------|----------------|----------------|------------|
A|----------------|----------------|-4-4-4-4-4-4-4-4|------------|
E|-3-3-3-3-3-3-3-3|-3-3-3-3-3-3-3-3|----------------|-2-2-2-2----|

[Verse 1]
G|----------------|----------------|----------------|----------------|
D|----------------|----------------|-2-2-2-2--------|----------------|
A|-2-2-2-2-2-2-2-2|-2-2-2-2-2-2-2-2|---------0-0-0-0|-5-5-5-5-5-5-5-5|
E|----------------|----------------|----------------|----------------|

G|----------------|----------------|----------------|------------|
D|-2-2-2-2-2-2-2-2|----------------|----------------|------------|
A|----------------|-2-2-2-2-2-2-2-2|-4-4-4-4-4-4-4-4|------------|
E|----------------|----------------|----------------|-2-2-2-2----|

G|----------------|----------------|----------------|----------------|
D|----------------|----------------|-2-2-2-2--------|----------------|
A|-2-2-2-2-2-2-2-2|-2-2-2-2-2-2-2-2|---------0-0-0-0|-5-5-5-5-5-5-5-5|
E|----------------|----------------|----------------|----------------|

G|----------------|----------------|----------------|----------------|
D|-2-2-2-2-2-2-2-2|----------------|----------------|----------------|
A|----------------|-2-2-2-2-2-2-2-2|----------------|-2-2-2-2-2-2-2-2|
E|----------------|----------------|-2-2-2-2-2-2-2-2|----------------|

[Pre-Chorus]
G|----------|----------|----------|----------|
D|-2---2----|----------|----------|----------|
A|----------|-0---0----|-5---5----|----------|
E|----------|----------|----------|-3---3----|

G|-----------|-----------|-----------|-----------|------------------------|
D|-----------|-----------|-----------|-----------|------------------------|
A|-7-------7-|-5---5---5-|-4---4---4-|-----------|------------------------|
E|-----0-----|-----------|-----------|-2---2---2-|----2---2---2--2-2-2-2-2|

[Chorus]
G|----------------|----------------|----------------|----------------|
D|----------------|-2-2-2-2-2-2-2-2|----------------|----------------|
A|-2-2-2-2-2-2-2-2|----------------|-0-0-0-0-0-0-0-0|-5-5-5-5-5-5-5-5|
E|----------------|----------------|----------------|----------------|

G|----------------|----------------|----------------|----------------|
D|-2-2-2-2-2-2-2-2|----------------|----------------|----------------|
A|----------------|-2-2-2-2-2-2-2-2|----------------|-2-2-2-2-2-2-2-2|
E|----------------|----------------|-2-2-2-2-2-2-2-2|----------------|

G|----------------|----------------|----------------|----------------|
D|----------------|-2-2-2-2-2-2-2-2|----------------|----------------|
A|-2-2-2-2-2-2-2-2|----------------|-0-0-0-0-0-0-0-0|-5-5-5-5-5-5-5-5|
E|----------------|----------------|----------------|----------------|

G|----------------|----------------|----------------|----------------|
D|-2-2-2-2-2-2-2-2|----------------|----------------|----------------|
A|----------------|-2-2-2-2-2-2-2-2|----------------|-2-2-2-2-2-2-2-2|
E|----------------|----------------|-2-2-2-2-2-2-2-2|----------------|

[Interlude]
G|----------------|----------------|----------------|
D|----------------|----------------|----------------|
A|-2-2-2-2-2-2-2-2|-0-0-0-0-0-0-0-0|-0-0-0-0-0-0-0-0|
E|----------------|----------------|----------------|

G|----------------|----------------|----------------|------------|
D|----------------|----------------|----------------|------------|
A|----------------|----------------|-4-4-4-4-4-4-4-4|------------|
E|-3-3-3-3-3-3-3-3|-3-3-3-3-3-3-3-3|----------------|-2-2-2-2----|

[Verse 2]
G|----------------|----------------|----------------|----------------|
D|----------------|----------------|-2-2-2-2--------|----------------|
A|-2-2-2-2-2-2-2-2|-2-2-2-2-2-2-2-2|---------0-0-0-0|-5-5-5-5-5-5-5-5|
E|----------------|----------------|----------------|----------------|

G|----------------|----------------|----------------|------------|
D|-2-2-2-2-2-2-2-2|----------------|----------------|------------|
A|----------------|-2-2-2-2-2-2-2-2|-4-4-4-4-4-4-4-4|------------|
E|----------------|----------------|----------------|-2-2-2-2----|

G|----------------|----------------|----------------|----------------|
D|----------------|----------------|-2-2-2-2--------|----------------|
A|-2-2-2-2-2-2-2-2|-2-2-2-2-2-2-2-2|---------0-0-0-0|-5-5-5-5-5-5-5-5|
E|----------------|----------------|----------------|----------------|

G|----------------|----------------|----------------|----------------|
D|-2-2-2-2-2-2-2-2|----------------|----------------|----------------|
A|----------------|-2-2-2-2-2-2-2-2|----------------|-2-2-2-2-2-2-2-2|
E|----------------|----------------|-2-2-2-2-2-2-2-2|----------------|

[Pre-Chorus]
G|----------|----------|----------|----------|
D|-2---2----|----------|----------|----------|
A|----------|-0---0----|-5---5----|----------|
E|----------|----------|----------|-3---3----|

G|-----------|-----------|-----------|-----------|------------------------|
D|-----------|-----------|-----------|-----------|------------------------|
A|---------7-|-5---5---5-|-4---4---4-|-----------|------------------------|
E|-0---0-----|-----------|-----------|-2---2---2-|----2---2---2--2-2-2-2-2|

[Chorus]
G|----------------|----------------|----------------|----------------|
D|----------------|-2-2-2-2-2-2-2-2|----------------|----------------|
A|-2-2-2-2-2-2-2-2|----------------|-0-0-0-0-0-0-0-0|-5-5-5-5-5-5-5-5|
E|----------------|----------------|----------------|----------------|

G|----------------|----------------|----------------|----------------|
D|-2-2-2-2-2-2-2-2|----------------|----------------|----------------|
A|----------------|-2-2-2-2-2-2-2-2|----------------|-2-2-2-2-2-2-2-2|
E|----------------|----------------|-2-2-2-2-2-2-2-2|----------------|

G|----------------|----------------|----------------|----------------|
D|----------------|-2-2-2-2-2-2-2-2|----------------|----------------|
A|-2-2-2-2-2-2-2-2|----------------|-0-0-0-0-0-0-0-0|-5-5-5-5-5-5-5-5|
E|----------------|----------------|----------------|----------------|

G|----------------|----------------|----------------|----------------|
D|-2-2-2-2-2-2-2-2|----------------|----------------|----------------|
A|----------------|-2-2-2-2-2-2-2-2|----------------|-2-2-2-2-2-2-2-2|
E|----------------|----------------|-2-2-2-2-2-2-2-2|----------------|

[Instrumental]
G|---------|--------|--------|-----------|
D|---------|--------|--------|----------7|
A|-2-------|--------|--------|------7-9--|
E|---------|--------|--------|-----------|

G|----------------------|-------------------------|
D|-9----7---5-------7---|-------------------------|
A|--------------5-7-----|-------------------------|
E|----------------------|-7----5---3--3-3-3-5-5-5-|

[Chorus] (x2)
G|----------------|----------------|----------------|----------------|
D|----------------|-2-2-2-2-2-2-2-2|----------------|----------------|
A|-2-2-2-2-2-2-2-2|----------------|-0-0-0-0-0-0-0-0|-5-5-5-5-5-5-5-5|
E|----------------|----------------|----------------|----------------|

G|----------------|----------------|----------------|----------------|
D|-2-2-2-2-2-2-2-2|----------------|----------------|----------------|
A|----------------|-2-2-2-2-2-2-2-2|----------------|-2-2-2-2-2-2-2-2|
E|----------------|----------------|-2-2-2-2-2-2-2-2|----------------|

G|----------------|----------------|----------------|----------------|
D|----------------|-2-2-2-2-2-2-2-2|----------------|----------------|
A|-2-2-2-2-2-2-2-2|----------------|-0-0-0-0-0-0-0-0|-5-5-5-5-5-5-5-5|
E|----------------|----------------|----------------|----------------|

G|----------------|----------------|----------------|----------------|
D|-2-2-2-2-2-2-2-2|----------------|----------------|----------------|
A|----------------|-2-2-2-2-2-2-2-2|----------------|-2-2-2-2-2-2-2-2|
E|----------------|----------------|-2-2-2-2-2-2-2-2|----------------|

[Outro]
G|----------------|----------------|----------------|
D|----------------|----------------|----------------|
A|-2-2-2-2-2-2-2-2|-0-0-0-0-0-0-0-0|-0-0-0-0-0-0-0-0|
E|----------------|----------------|----------------|

G|----------------|----------------|-------------------------|------------3-4|
D|----------------|----------------|-------------------------|--4-3-4-5-4----|
A|----------------|----------------|-------------------------|---------------|
E|-3-3-3-3-3-3-3-3|-3-3-3-3-3-3-3-3|-2---2---2---2--2-2-2-2-2|---------------|

            
            
Suggest correction
Creating personal tab
Creating personal tab
You can edit any tab online and save it as your Personal.

You can edit, replace or remove any tab part or add personal notes – all changes will be seen only by you.

Personal tabs can be accessed anytime from any device, even offline.
Learn more »
Give kudos to tab author, rate the tab!
1 2 3 4 5
comments
print report bad tab
guest
You may want to rate the tab now too:
select rating
Wanna post a correction for this tab? Suggest correction