Oops, an error
Loading. Please wait.

Não Sei chords

by T.N.T.
22 views 1 this week
no commentswrite comment
1 2 3 4 5
3 more votes to show rating
add to favorites
×
Save as Personal and add changes to this tab that will be seen only by you. Learn more ›
×
You can save this tab as Personal to edit and correct it or add notes. All changes will be seen only by you. Learn more »
launch autoscroll
font size
0
reset
transpose
0
reset
simplify chords
display chords
guitar tuner
edit
Autoscroll
slow
fast
+/-
esc
set tempo
stop
Strumming
There is no strumming pattern for this song yet. and get +5 IQ
[Intro]
D D4 A G G A

[Verse 1]
D     D4     A     G         G      A
não sei se eu to certo ou se eu to errado
D     D4     A     G         G      A
mas faço tudo o que eu digo e digo tudo que eu faço
D     D4     A     G         G      A
neste mundo eu sou eu, você é você
D     D4     A     G         G      A
faça tudo o que quiser porque também vou fazer

[Solo Bridge]
e|---------------------------|       e|--------------------------------------------------|
B|---------------------------|       B|--------------------------------------------------|
G|---------------------------|   OU  G|--------------------------------------------------|        
D|---------------------------|       D|---0---------           nessa parte       D|---0--|
A|-------5-------------------|       A|-2---2h0-----                             A|-2----|
E|--5/7-----7----3-----------|       E|---------3----------------------------------------|

[Bridge]
A             G
não sei mais o que faço
A             G
eu já fumei dez maços
A             G
mandei tudo pro espaço
A         G
agora eu só quero paz
          D D4 A G G A
Quero pa-az
          D D4 A G G A
Quero pa-az
          D D4 A G G A
Quero pa-az

D     D4     A     G         G      A
Cansei dessa gente desse papo furado
D     D4     A     G         G      A
eu viajei por todo o mundo pra ficar descansado
D     D4     A     G         G      A
mas nada feito, o meu problema foi sempre você
D     D4     A     G         G      A
diga tudo o que quiser pois eu preciso saber

[Bridge]
A             G
não sei mais o que faço
A             G
eu já fumei dez maços
A             G
mandei tudo pro espaço
A         G
agora eu só quero paz
          D D4 A G G A
Quero pa-az
          D D4 A G G A
Quero pa-az
          D D4 A G G A
Quero pa-az

[Solo]

e|-------------------------------------------------------------------|
B|-------------------------------------------------------------------|
G|-------------------------------------------7-7^--------------------|
D|--------7-9-9^-7-x-7^-7h9p7-----------7-9-7-----9\-7h9p7-----------|
A|-----5/9------------------------5-/7h9-------------------9-7h9p7---|
E|----------------------------5h7---------------------------------10-|

e|------------------------------------|
B|------------------------------------|
G|------------------------------------|
D|----------7-9-7-9-9^--7----------7--|
A|----5-/7h9--------------7h9-7-7h9---|
E|-5h7--------------------------------|

e|----------------------------------------------|
B|------------------10--10--10------------------|
G|----------------9^--9^--9^--9^-7-9-7--9^-7-7--|
D|--------7-9-7-9-------------------------------|
A|---5h7/9--------------------------------------|
E|-7--------------------------------------------|

e|----7------------------------------------------------------------|
D|-----10p7--7-----------------------------------------------------|
G|-9^------9^-9^--7h9---------------------------------7-9-9^-7-7-9-|
D|--------------9-----9-----------------------7-9-9-7---------9----|
A|-----------------------5h7-x-5h7-5---5---7/9---------------------|
E|---------------------------------------7-------------------------|

e|-----------------------------------------------------------------|
B|-----10-12-12--13^-12--------------------------------------------|
G|-9/11-------------------9h11-9-7-7-------------------------------|
D|-----------------------------------------------------------------|
A|-----------------------------------------------------------------|
E|-----------------------------------------------------------------|

[Verse 1]

D     D4     A     G         G      A
não sei se eu to certo ou se eu to errado
D     D4     A     G         G      A
mas faço tudo o que eu digo e digo tudo que eu faço
D     D4     A     G         G      A
neste mundo eu sou eu, você é você
D     D4     A     G         G      A
faça tudo o que quiser porque também vou fazer

[Bridge]
A             G
não sei mais o que faço
A             G
eu já fumei dez maços
A             G
mandei tudo pro espaço
A         G
agora eu só quero paz
          D D4 A G G A
Quero pa-az
          D D4 A G G A
Quero pa-az
          D D4 A G G A
Quero pa-az

************************************

| h  Hammer-on
| /  Slide up
| x  Dead note
| p  Pull-off
| \  Slide down

************************************

            
            
Suggest correction
Creating personal tab
Creating personal tab
You can edit any tab online and save it as your Personal.

You can edit, replace or remove any tab part or add personal notes – all changes will be seen only by you.

Personal tabs can be accessed anytime from any device, even offline.
Learn more »
Give kudos to tab author, rate the tab!
1 2 3 4 5
comments
print report bad tab
guest
You may want to rate the tab now too:
select rating
Wanna post a correction for this tab? Suggest correction