Oops, an error
Loading. Please wait.

La Fleur De Lâge chords

16 views 1 this week
no commentswrite comment
1 2 3 4 5
3 more votes to show rating
add to favorites
×
Save as Personal and add changes to this tab that will be seen only by you. Learn more ›
×
You can save this tab as Personal to edit and correct it or add notes. All changes will be seen only by you. Learn more »
launch autoscroll
font size
0
reset
transpose
0
reset
simplify chords
display chords
guitar tuner
edit
Autoscroll
slow
fast
+/-
esc
set tempo
stop
Strumming
There is no strumming pattern for this song yet. and get +5 IQ
[Intro]
  Am                E7                                  Am    F  E
e|--------|--------|--0-0---|--------|----0---|0-------|--------|--------|
B|----1-3-|5-3-1---|------3-|5-------|------3-|--3-1-0-|--------|--------|
G|2--2----|------2-|1-------|--------|1--1----|--------|2-------|--------|
D|--------|--------|--------|--------|--------|--------|----2-3-|2-------| x2
A|--------|--------|--------|--------|--------|--------|--------|--------|
E|--------|--------|--------|--------|--------|--------|--------|--------|


[Couplet 1]
          Am                                 E7                  
Ne me dis pas qu’à peine éclose, la fleur de l’âge se flétrit
        E7                              Am                                 
Je vis avec ce genre de rose au parfum doux, juste fleuri
               Am                      E7                           
Le temps qu’il a mis à figer sur son regard quelques ridules
                E7                        Am                           
D’autres ont tenté de les cacher en maquillage ridicule

            F                         E7                
Bien sûr la jeunesse suppose quelques atouts innocents
             E7                                 Am             
Qui font que le regard qu’on pose sur elle semble vite indécent
        Am                        E7              
La facilité qu’une jupe a de se lever me ravit
            E7                         Am                            
Mais voilà, je ne suis pas dupe de ces fausses facéties


[Refrain]
           Am             E7           
Ne cherche pas à vouloir arrêter le temps
          E7                        Am              
J’aime la beauté dont il te pare et dont je suis l’amant
           Am             E7              
Ne cherche pas à vouloir arrêter le temps
          E7                                                            
J’aime la beauté dont il te pare... hum hum      
 

[Accordéon]                                                    
  Am                E7                                  Am    F  E
e|--------|--------|--0-0---|--------|----0---|0-------|--------|--------|
B|----1-3-|5-3-1---|------3-|5-------|------3-|--3-1-0-|--------|--------|
G|2--2----|------2-|1-------|--------|1--1----|--------|2-------|--------|
D|--------|--------|--------|--------|--------|--------|----2-3-|2-------|
A|--------|--------|--------|--------|--------|--------|--------|--------|
E|--------|--------|--------|--------|--------|--------|--------|--------|
                                                                    
                                                                        
[Couplet 2]
           Am                         E7                  
Les filles de papier glacé à peine au sortir de l’enfance
              E7                         Am                               
Viennent tout juste éveiller le plus sensible de mes sens
              Am                               E7                         
Elles ont pourtant la fronde habile dans le refus d’être des mômes
                E7                               Am          
Et tromp’nt les yeux les plus subtils de leur sensualité fantôme

          F                      E7                 
Mais être une femme suppose de tout autres arguments
             E7                   Am                
Que ceux que ces filles exposent inexorablement
             Am                            E7                
Si ton corps galbe cette jupe c’est mon regard que tu ravis
        E7                       Am                  
Mon âme que tu préoccupes et mon corps qui crie merci


[Refrain]
           Am             E7           
Ne cherche pas à vouloir arrêter le temps
          E7                        Am              
J’aime la beauté dont il te pare et dont je suis l’amant
           Am             E7              
Ne cherche pas à vouloir arrêter le temps
          E7                                                            
J’aime la beauté dont il te pare... hum hum    


[Accordéon]
  Am                E7                                  Am    F  E
e|--------|--------|--0-0---|--------|----0---|0-------|--------|--------|
B|----1-3-|5-3-1---|------3-|5-------|------3-|--3-1-0-|--------|--------|
G|2--2----|------2-|1-------|--------|1--1----|--------|2-------|--------|
D|--------|--------|--------|--------|--------|--------|----2-3-|2-------| x2
A|--------|--------|--------|--------|--------|--------|--------|--------|
E|--------|--------|--------|--------|--------|--------|--------|--------|


[Reprise fin Couplet 2]
             Am                            E7                
Si ton corps galbe cette jupe c’est mon regard que tu ravis
        E7                       Am                       
Mon âme que tu préoccupes et mon corps qui crie merci


[Refrain]
           Am             E7           
Ne cherche pas à vouloir arrêter le temps
          E7                        Am              
J’aime la beauté dont il te pare et dont je suis l’amant
           Am             E7              
Ne cherche pas à vouloir arrêter le temps
          E7                                                            
J’aime la beauté dont il te pare... hum hum   


[Accordéon (lent)]
  Am                E7   Am
e|--------|--------|--------|
B|----1-3-|5-3-1---|--------|
G|2--2----|------2-|2-------|
D|--------|--------|--------|
A|--------|--------|--------|
E|--------|--------|--------|
Suggest correction
Creating personal tab
Creating personal tab
You can edit any tab online and save it as your Personal.

You can edit, replace or remove any tab part or add personal notes – all changes will be seen only by you.

Personal tabs can be accessed anytime from any device, even offline.
Learn more »
Give kudos to tab author, rate the tab!
1 2 3 4 5
comments
print report bad tab
guest
You may want to rate the tab now too:
select rating
Wanna post a correction for this tab? Suggest correction