Oops, an error
Loading. Please wait.

Javerts Suicide chords

version 3
version 3

Whole song

  • Based on the movie version: https://www.youtube.com/watch?v=hRzvdQh8D2Q.
136 views 24 this week
no commentswrite comment
1 2 3 4 5
2 more votes to show rating
add to favorites
×
Save as Personal and add changes to this tab that will be seen only by you. Learn more ›
×
You can save this tab as Personal to edit and correct it or add notes. All changes will be seen only by you. Learn more »
launch autoscroll
font size
0
reset
transpose
0
reset
simplify chords
display chords
guitar tuner
edit
Autoscroll
slow
fast
+/-
esc
set tempo
stop
Strumming
There is no strumming pattern for this song yet. and get +5 IQ
[Intro]
     1       +       2       +       3       +       4       +
e|-------------------------------------------------------------------|
B|-----------------------------------------------------------0-------|
G|-------------------------------------------------------------------|
D|-------------------------------------------------------------------|
A|-----------------------------------------------------------2-------|
E|-------------------------------------------------------------------|

     1       +       2       +       3       +       4       +
e|---0-------------------------------0-------------------------------|
B|---------------------------0-------------------------------0-------|
G|-------------------------------------------------------------------|
D|-------------------------------------------------------------------|
A|-----------2-------2-------2---------------2-------2-------2-------|
E|---0-------------------------------0-------------------------------|

     1       +       2       +       3       +       4       +
e|---0-------2-------3-------2-------0-------------------------------|
B|---------------------------------------------------------- 0-------|
G|-------------------------------------------------------------------|
D|-------------------------------------------------------------------|
A|-----------2-------2-------2---------------2-------2-------2-------|
E|---0-------------------------------0-------------------------------|

     1       +       2       +       3       +       4       +
e|---0-------------------------------0-------------------------------|
B|---------------------------0-------------------------------0-------|
G|-------------------------------------------------------------------|
D|-------------------------------------------------------------------|
A|-----------2-------2-------2---------------2-------2-------2-------|
E|---0-------------------------------0-------------------------------|

     1       +       2       +       3       +       4       +
e|-------------------------------------------------------------------|
B|---3-------0-------0---------------3-------0-------0---------------|
G|---------------------------2-------------------------------2-------|
D|-------------------------------------------------------------------|
A|-----------2-------2-------2---------------2-------2-------2-------|
E|---0-------------------------------0-------------------------------|

     1       +       2       +       3       +       4       +
e|---------------------------------------------------0---------------|
B|---3-------0-------0---------------0---------------0---------------|
G|---------------------------2-----------------------2---------------|
D|---0---------------------------------------------------------------|
A|-----------2-------2-------0-------2---------------4---------------|
E|-------------------------------------------------------------------|

[VALJEAN]
F#m 
It's you, Javert! I knew you wouldn't wait too long.
E/F#
The faithful servant at his post once more.
A/F#                                             B/F#
This man's done no wrong and he needs a doctor's care.

[JAVERT]
F#m
I warned you I would not give in.
E/F#
I won't be swayed,

[VALJEAN]
E/F#
Another hour yet,
A/F#                                     B/F#
And then I'm yours and all our debts are paid.

[JAVERT]
A
The man of mercy comes again
E
And talks of justice

[VALJEAN]
E
Come, time is running short
Em
Look down, Javert
     D/E
He's standing in his grave
     Fm
Give way, Javert            [JAVERT]: Take him, Valjean,
      Gm/F
There is a life to save     [JAVERT]: before I change my mind.

[JAVERT]
          Fm
I will be waiting
                Bb
two four six oh one

[Instrumental]

Eb/A  Eb/A 
Csus4 Csus4/Db Bbsus4 Bbsus4/C
Cb7   Cb7      Dbsus4 Dbsus4/Bb

[JAVERT]
F5add7
Who is this man, what sort of devil is he?
           Ab5/Eb
To have me caught in a trap and choose to let me go free?
           Bb/D
It was his hour at last to put a seal on my fate
Gm
Wipe out the past and wash me clean off the slate!
Gdim
All it would take is a flick of his knife
Fsus4                    Fsus4   F
Vengeance was his and he gave me back my life!

[Instrumental]
Bbm Bbsus2 Bbm Bbsus2

Bbm            Bbsus2      Bbm             Bbsus2
Damned if I'll live in the debt of a thief!
Bbm            Bbsus2       Bbm             Bbsus2
Damned if I'll yield at the end of the chase.
Db       Dbsus2      Db               Dbsus2
I am the Law and the Law is not mocked.
Db            Dbsus2     Db              
I'll spit his pity right back in his face
Dbsus2   Gb5        F             Bbm 
There is nothing on earth that we share
      Gb        F         Bbm  Bbsus2 Bbsus4 Bbm
It is either Valjean or Javert!

[Instrumental]
Dm Dsus2 Dsus4 Dm
F        F

F                        Bbm/F
How can I now allow this man
                      F
To hold dominion over me
Dm                             A
This desperate man whom I have hunted.
   Bb                  F
He gave me my life, he gave me freedom

F                             Bb   C
I should have perished by his hand
           F
It was his right
                          Bbm/F
It was my right to die as well
C                              F
Instead, I live... but live in hell

Db                   Fm
And my thoughts fly apart
Db                Fm
Can this man be believed?
Bb/C              Dm
Shall his sins be forgiven?
Bb/C                  F {C5/F Dm/F Eb5/F Fm G5/F Bsus4/F Db/F}; not necessary, just hold F
Shall his crimes be reprieved?

F                       Bbm
And must I now begin to doubt
Bbm                         F
Who never doubted all these years?
Dm                             A
My heart is stone and still it trembles
    Dm           Bb       F
The world I have known is lost in shadow

Cm                        Bb   
Is he from heaven or from hell?
C           F
And does he know
F                          Bbm
That granting me my life today
C                           Dm
This man has killed me even so?

Dm
I am reaching, but I fall
Dm
And the stars are black and cold
     Am/C 
As I stare into the void
C7
Of a world that cannot hold

       Fsus4 F
I'll escape now from that world
         Fsus4 F
From the world of Jean Valjean
         Fsus4 F
There is nowhere I can turn
         Fsus4 F      F#m
There is no way to go on!

            
            
Suggest correction
Creating personal tab
Creating personal tab
You can edit any tab online and save it as your Personal.

You can edit, replace or remove any tab part or add personal notes – all changes will be seen only by you.

Personal tabs can be accessed anytime from any device, even offline.
Learn more »
Give kudos to tab author, rate the tab!
1 2 3 4 5
comments
print report bad tab
guest
You may want to rate the tab now too:
select rating
Wanna post a correction for this tab? Suggest correction