Oops, an error
Loading. Please wait.

Vivir Sin Aire tab

version 1
version 1
by Maná
57,083 views 51 this week
2 commentsread comments
1 2 3 4 5
1 last vote to show rating
add to favorites
×
Save as Personal and add changes to this tab that will be seen only by you. Learn more ›
×
You can save this tab as Personal to edit and correct it or add notes. All changes will be seen only by you. Learn more »
launch autoscroll
font size
0
reset
how to read this tab
guitar tuner
edit
Autoscroll
slow
fast
+/-
esc
set tempo
stop
Author
Unregistered
ManáVivir Sin Aire (unplugged) (TAB)
Tabbed by maria de los angeles cambra : mariangelescambra@arnet.com.ar

Esta es una excelente version del unplugged, es mi primer trabajo en tabs
y tengo relativamente poco tiempo de tocar guitarra asi que es probable que
tenga errores, PORFAVOR!  Si encuentran errores me avisan.
La idea es tocar la cancion con 2 guitarras, una con el ritmo y la otra
lleva los arpegios y los arreglos. Se puede tocar con una sola, pero hay
que tener mas velocidad!. Asi como está, considero que suena bastante bien.

 [Intro]
 (Esta es mi version de la introduccion)
     (G)       (Bm7)     (C)      (D)                (Final)
e|E----3------5---2---5p2--0----3---2-----3---|--3-2-2-0-0---------|
B|----3-3----3---3--3-----1---1----3-3p5--5--|--3-3-3-1-1--3-3\1~-|
G|----0--0-0-----2-2------0--0-----2---------|-------------4-4\2~-|
D|---------------------------------0---------|--------------------|
A|---------------2--------3------------------|--------------------|
E|----3---3----------------------------------|--------------------|
Harmonica:

e|-----12~~~-10-12-10-12-10-10-7~--7-8-7-8-7-7-3~-3p5~--|
B|---8~-------------------------------------------------|
G|------------------------------------------------------|
D|------------------------------------------------------|
A|------------------------------------------------------|
E|------------------------------------------------------|
G           Bm7       C       D                  G Bm7 C D

Como quisiera       poder vivir sin aire
[riff2]
e|--3/5--5-5--3-2--2-3-2-0-------2---3--2-2-3---------|
B|--3/5--5-5--3-3--3-3-3-1--1/3--3---3--3-3-3---------|
G|--------------------------2/4-----------------------|
D|----------------------------------------------------|
A|----------------------------------------------------|
E|----------------------------------------------------|

 G           Bm7       C       D                  G Bm7 C D

Como quisiera       poder vivir sin agua
[riff3]
e|-----3------3-5-3------------------------|
B|-3/5----3-5-3-5-3--3-3/5--5-5-5-3-3-3-1--|
G|--------4-5--------4-4/5--5-5-5-3-4-4-2--|
D|-----------------------------------------|
A|-----------------------------------------|
E|-----------------------------------------|

G           Bm7       C       D                        G Bm7 C D
Me encantaria       quererte un poco menos (riff2)
G          Bm7        C      D               G Bm7 C D
Como quisiera       poder vivir sin ti (riff 3)
C            D     Em             C
  Pero no puedo,     siento que muero
 G                        D
  Me estoy ahogando sin tu amor

[riff 4]
e|--2-3-5-3-2---3--------------|
B|------------5---5-3----------|
G|-------------------5-4-2-----|
D|-------------------------5p4-|
A|-----------------------------|
E|-----------------------------|

Em                      C           G  D
 Como quisiera poder vivir sin aire
Em                      C           D
 Como quisiera calmar mi afliccion
Em                      C           G  D
Como quisiera poder vivir sin agua
Em             C                    D
Me encantaria robar tu corazon

[INTRO]
(Como pudiera un pez nadar sin agua)
[riff 4]
e|-----------2-3-0-----------------|
B|------3-5--3-3-1--5-5-5-3-3------|
G|--4-5-4-5---------5-5-5-4-4--4-5-|
D|--5-5------------------------5-5-|
A|---------------------------------|
E|---------------------------------|

Como pudiera un ave volar sin alas
[riff 5]
e|--------7---5---3--2-3-0-----2-3-2-2-3-|
B|----5p7---5---3----3-3-1-1p3-3-3-3-3-3-|
G|-------------------------2p4-----------|
D|---------------------------------------|
A|---------------------------------------|
E|---------------------------------------|

Como pudiera la flor crecer sin tierra
[riff 6]
e|-----------2-3-0-------------2-3-|
B|------3-5--3-3-1--5-5-5-3-3--3-3-|
G|--4-5-4-5---------5-5-5-4-4------|
D|--5-5----------------------------|
A|---------------------------------|
E|---------------------------------|

Como quisera poder vivir sin ti (riff 5)
[riff 5]
e|--------7---5---3--2-3-2-0-0----------------|
B|----5p7---5---3----3-3-3-1-1-3-3-0-0-1\3----|
G|-----------------------------4-4-0-0-2\4----|
D|--------------------------------------------|
A|--------------------------------------------|
E|--------------------------------------------|

Pero no puedo, siento que muero
Me estoy ahogando sin tu amor (riff 4)
Como quisiera poder vivir sin aire
Como quisera calmar mi afliccion
Como quisiera poder vivir sin agua
Me encantaria robar tu corazon
Como quisera lanzarte al olvido
Como quiera guardarte en un cajon
Como quisiera borrarte de un soplido
Me encantaria matar esta cancion

[final]
e|--3-2-0----------2-3----0-----------------------7--10--9--8-7----------|
B|--3-3-1---3-3---3--3---1--5-3--1---------------8----12-10-10-8---------|
G|---------4--4--2---2--2------4--2------------7------------------7------|
D|--------5---5--------------------------0-7-9----------------------10-9-|
A|-----------------------------------10~---------------------------------|
E|-----------------------------------------------------------------------|

            
            
Suggest correction
Creating personal tab
Creating personal tab
You can edit any tab online and save it as your Personal.

You can edit, replace or remove any tab part or add personal notes – all changes will be seen only by you.

Personal tabs can be accessed anytime from any device, even offline.
Learn more »
Give kudos to tab author, rate the tab!
1 2 3 4 5
comments
print report bad tab
2 comments total.
0 reply
FELIPE Lebrón 10 Dec 14, 2002 07:00 PM

NO ESTA NADA MAL PARA SER TU PRIMERA CANCION.YO TAMBIEN TOCO GUITARRA NO SOY UN APRENDIZ PERO TAMPOCO UN VETERANO.SI QUIERES MANDARME UN EMAIL ES CHIQUITRILLA@TLD.NET, ME LLAMO FELIPE Y TENGO 14 AÑOS.

0 reply
Brody GuitarGod 31 Feb 18, 2006 05:58 PM

hmmm well done im mexican but i cant type in spanish sorry

guest
Wanna post a correction for this tab? Suggest correction