Oops, an error
Loading. Please wait.

Raatona Maantiellä tab

55 views 6 this week
no commentswrite comment
1 2 3 4 5
2 more votes to show rating
add to favorites
×
Save as Personal and add changes to this tab that will be seen only by you. Learn more ›
×
You can save this tab as Personal to edit and correct it or add notes. All changes will be seen only by you. Learn more »
launch autoscroll
font size
0
reset
how to read this tab
guitar tuner
edit
Autoscroll
slow
fast
+/-
esc
set tempo
stop
Artist: Kolmas Nainen
Album: Paha Minut Iski (1987)
Song: Raatona Maantiellä

Tuning: Standard (EADGBe)

Riffs at the end of 1st and 3rd Verses and the fastest part of the solo are more or less interpretations. 
Basically all licks from E minor Pentatonic or Blues sound great, if you prefer your own over my suggestions.

[Intro]
   1  &  2  &  3  &  4  &  | 1  &  2  &  3  &  4  &  | 1  &  2  &  3  &  4  &  | 1  &  2  &  3  &  4  &  |
   A                    G             D           A                         G             D           A
e|-------------------------|-------------------------|-------------------------|-------------------------|
B|----------------------3--|----------3--------------|----------------------3--|----------3--------------|
G|\2--------------2-----0--|----------2-----------2--|----------------2-----0--|----------2-----------2--|
D|\2--------------2-----0--|----------0-----------2--|----------------2-----0--|----------0-----------2--|
A|\0--------------0--------|----------------------0--|----------------0--------|----------------------0--|
E|----------------------3--|----------------2--3-----|----------------------3--|----------------2--3-----|


[Verse] (Riff is the same as in [Intro], just put a little more emphasis on the lower strings)
   1  &  2  &  3  &  4  &  | 1  &  2  &  3  &  4  &  | 1  &  2  &  3  &  4  &  | 1  &  2  &  3  &  4  &  |
                        G             D           A                         G             D           A
e|-------------------------|-------------------------|-------------------------|-------------------------|
B|----------------------3--|----------3--------------|----------------------3--|----------3--------------|
G|----------------2-----0--|----------2-----------2--|----------------2-----0--|----------2-----------2--|
D|----------------2-----0--|----------0-----------2--|----------------2-----0--|----------0-----------2--|
A|----------------0--------|----------------------0--|----------------0--------|----------------------0--|
E|----------------------3--|----------2-----2--3-----|----------------------3--|----------2-----2--3-----|
 Ennen kaikki   oli      helpompaa        mä tiesin ketä pitää kumartaa kenen kengät kiillottaa

   1  &  2  &  3  &  4  &  | 1  &  2  &  3  &  4  &  | 1  &  2  &  3  &  4  &  | 1  &  2  &  3  &  4  &  |
                        G             D           E                                                   A
e|-------------------------|-------------------------|----0--------0-----------|-------------------------|
B|----------------------3--|----------3--------------|----0--------0-----------|-------------------------|
G|---------------2------0--|----------2--------------|----1--------1-----------|----------------------2--|
D|---------------2------0--|----------0--------------|----2--------2--------/2-|----0-----------------2--|
A|---------------0---------|----------------------2--|----------2--------------|-------2--1--0--------0--|
E|----------------------3--|----------2-----2--3--0--|----------0--------------|----------------0--3-----|
  Mä  tiesin  miten  niiltä   rahat  saa           Mä lähen takasin Havannaan


[Verse]
   1  &  2  &  3  &  4  &  | 1  &  2  &  3  &  4  &  | 1  &  2  &  3  &  4  &  | 1  &  2  &  3  &  4  &  |
                        G             D           A                         G             D           A
e|-------------------------|-------------------------|-------------------------|-------------------------|
B|----------------------3--|----------3--------------|----------------------3--|----------3--------------|
G|----------------2-----0--|----------2-----------2--|----------------2-----0--|----------2-----------2--|
D|----------------2-----0--|----------0-----------2--|----------------2-----0--|----------0-----------2--|
A|----------------0--------|----------------------0--|----------------0--------|----------------------0--|
E|----------------------3--|----------2-----2--3-----|----------------------3--|----------2-----2--3-----|
        Vaikeeta on elo tänään huijarin       vaikka vaikeeta      oli   varmaan  vaarillakin    


   1  &  2  &  3  &  4  &  | 1  &  2  &  3  &  4  &  | 1  &  2  &  3  &  4  &  | 1  &  2  &  3  &  4  &  |
                        G             D           E                              N.C.
e|-------------------------|-------------------------|----0--------0-----------|-------------------------|
B|-------------------------|-------------------------|----0--------0-----------|----8-----8-----8-----8--|
G|----------------2-----0--|-------0-----------0-----|----1--------1-----------|----7b9--b9----r7-----5--|
D|----------------2-----0--|----0-----0-----0--------|----2--------2-----------|-------------------------|
A|----------------0--------|----------------------2--|----------2--------2-----|-------------------------|
E|----------------------3--|----------2-----------0--|----------0--------0-----|-------------------------|
      Täytyy sinnikkäästi    yrittää      vaikka    henki  haisee  niin että   hävettää




[Chorus]

   1  &  2  &  3  &  4  &  | 1  &  2  &  3  &  4  &  | 1  &  2  &  3  &  4  &  | 1  &  2  &  3  &  4  &  |
e|-------------------------|-------------------------|-------------------------|-------------------------|
B|-------------------------|-------------------------|-------------------------|-------------------------|
G|-------2--------7-----5--|-------0--------0-----2--|-------5--------7-----5--|-------2-----------------|
D|-------2--------7-----5--|-------0--------0-----2--|-------5--------7-----5--|-------2-----------------|
A|-0--0-----0--0-----0-----|-0--0-----0--0-----0-----|-0--0-----0--0-----0-----|-0--0----/7--5--------0--|
E|-------------------------|-------------------------|-------------------------|-------------------------|
         Mielummin           makaan                     Raatona     maantiellä

   1  &  2  &  3  &  4  &  | 1  &  2  &  3  &  4  &  | 1  &  2  &  3  &  4  &  | 1  &  2  &  3  &  4  &  |
e|-------------------------|-------------------------|-------------------------|-------------------------|
B|-------------------------|-------------------------|-------------------------|-------------------------|
G|-------5--------7-----5--|-------0--------0-----2--|-------5--------7-----5--|-------2-----------------|
D|-------5--------7-----5--|-------0-----------------|-------5--------7-----5--|-------2-----------------|
A|-0--0-----0--0-----0-----|-0--0-----0--0-----0-----|-0--0-----0--0-----0-----|-0--0----/7--5-----------|
E|-------------------------|-------------------------|-------------------------|-------------------------|
  Mielummin   häviän  sinne             kuin  meen     hautaan   elävältä

   1  &  2  &  3  &  4  &  | 1  &  2  &  3  &  4  &  | 1  &  2  &  |
e|-------------------------|-------------------------|-------------|
B|-------------------------|-------------------------|-------------|
G|-------------------------|-------------------------|----------2--|
D|-------------------------|-------------------------|----------2--|
A|----------5--3~~~~-------|-------------------------|----------0--|
E|-------------------------|-------------------------|-------------|


[Verse]
   1  &  2  &  3  &  4  &  | 1  &  2  &  3  &  4  &  | 1  &  2  &  3  &  4  &  | 1  &  2  &  3  &  4  &  |
                        G             D           A                         G             D           A
e|-------------------------|-------------------------|-------------------------|-------------------------|
B|----------------------3--|----------3--------------|----------------------3--|----------3--------------|
G|-------------------2--0--|----------2-----------2--|----------------2-----0--|----------2-----------2--|
D|-------------------2--0--|----------0-----------2--|----------------2-----0--|----------0-----------2--|
A|-------------------0-----|----------------------0--|----------------0--------|----------------------0--|
E|----------------------3--|----------2-----2--3-----|----------------------3--|----------2-----2--3-----|
  Syöksytään              pimeään     Mennään    sekaan   loskan        mennään  sekaan  jään

   1  &  2  &  3  &  4  &  | 1  &  2  &  3  &  4  &  | 1  &  2  &  3  &  4  &  | 1  &  2  &  3  &  4  &  |
                        G             D           E                              
e|-------------------------|-------------------------|----0--------0-----------|-------------------------|
B|-------------------------|-------------------------|----0--------0-----------|-------------------------|
G|----------------2-----0--|-------0-----------0-----|----1--------1-----------|----------------------2--|
D|----------------2-----0--|----0-----0-----0--------|----2--------2-----------|----2--0--------------2--|
A|----------------0--------|----------------------2--|----------2--------2-----|<7>-------2--0--------0--|
E|----------------------3--|----------2-----------0--|----------0--------0-----|<7>-------------0--3-----|
   Kylki   kyljessä         täristään               En   osaa   ikävöidä     mihinkään 


[Verse]
   1  &  2  &  3  &  4  &  | 1  &  2  &  3  &  4  &  | 1  &  2  &  3  &  4  &  | 1  &  2  &  3  &  4  &  |
                        G             D           A                         G             D           A
e|-------------------------|-------------------------|-------------------------|-------------------------|
B|----------------------3--|----------3--------------|----------------------3--|----------3--------------|
G|----------------2-----0--|----------2-----------2--|----------------2-----0--|----------2-----------2--|
D|----------------2-----0--|----------0-----------2--|----------------2-----0--|----------0-----------2--|
A|----------------0--------|----------------------0--|----------------0--------|----------------------0--|
E|----------------------3--|----------2-----2--3-----|----------------------3--|----------2-----2--3-----|
   Taakse jää      se mikä oli määränpää    Ennen    päivännousua        hämärtää


   1  &  2  &  3  &  4  &  | 1  &  2  &  3  &  4  &  | 1  &  2  &  3  &  4  &  | 1  &  2  &  3  &  4  &  |
                        G             D           E                              N.C.
e|-------------------------|-------------------------|----0--------0-----------|-------------------------|
B|-------------------------|-------------------------|----0--------0-----------|----8-----8-----8-----8--|
G|----------------2-----0--|-------0-----------0-----|----1--------1-----------|----7b9--b9----r7-----5--|
D|----------------2-----0--|----0-----0-----0--------|----2--------2-----------|-------------------------|
A|----------------0--------|----------------------2--|----------2--------2-----|-------------------------|
E|----------------------3--|----------2-----------0--|----------0--------0-----|-------------------------|
      Valon lämpöö se     on   elämää            kun yölllä kulkee  sitä  ilman  jää

[Chorus]
   1  &  2  &  3  &  4  &  | 1  &  2  &  3  &  4  &  | 1  &  2  &  3  &  4  &  | 1  &  2  &  3  &  4  &  |
e|-------------------------|-------------------------|-------------------------|-------------------------|
B|-------------------------|-------------------------|-------------------------|-------------------------|
G|-------2--------7-----5--|-------0--------0-----2--|-------5--------7-----5--|-------2-----------------|
D|-------2--------7-----5--|-------0--------0-----2--|-------5--------7-----5--|-------2-----------------|
A|-0--0-----0--0-----0-----|-0--0-----0--0-----0-----|-0--0-----0--0-----0-----|-0--0----/7--5--------0--|
E|-------------------------|-------------------------|-------------------------|-------------------------|
         Mielummin           makaan                     Raatona     maantiellä

   1  &  2  &  3  &  4  &  | 1  &  2  &  3  &  4  &  | 1  &  2  &  3  &  4  &  | 1  &  2  &  3  &  4  &  |
e|-------------------------|-------------------------|-------------------------|-------------------------|
B|-------------------------|-------------------------|-------------------------|-------------------------|
G|-------5--------7-----5--|-------0--------0-----2--|-------5--------7-----5--|-------2-----------------|
D|-------5--------7-----5--|-------0--------0-----2--|-------5--------7-----5--|-------2-----------------|
A|-0--0-----0--0-----0-----|-0--0-----0--0-----0-----|-0--0-----0--0-----0-----|-0--0----/7--5--------0--|
E|-------------------------|-------------------------|-------------------------|-------------------------|
  Mielummin   häviän  sinne             kuin  meen     hautaan   elävältä

   1  &  2  &  3  &  4  &  | 1  &  2  &  3  &  4  &  | 1  &  2  &  3  &  4  &  | 1  &  2  &  3  &  4  &  |
e|-------------------------|-------------------------|-------------------------|-------------------------|
B|-------------------------|-------------------------|-------------------------|-------------------------|
G|-------5--------7-----5--|-------0--------0-----2--|-------5--------7-----5--|-------2-----------------|
D|-------5--------7-----5--|-------0--------0-----2--|-------5--------7-----5--|-------2-----------------|
A|-0--0-----0--0-----0-----|-0--0-----0--0-----0-----|-0--0-----0--0-----0-----|-0--0----/7--5--------0--|
E|-------------------------|-------------------------|-------------------------|-------------------------|
         Mielummin           makaan                     Raatona     maantiellä

   1  &  2  &  3  &  4  &  | 1  &  2  &  3  &  4  &  | 1  &  2  &  3  &  4  &  | 1  &  2  &  3  &  4  &  |
e|-------------------------|-------------------------|-------------------------|-------------------------|
B|-------------------------|-------------------------|-------------------------|-------------------------|
G|-------5--------7-----5--|-------0--------0-----2--|-------5--------7-----5--|-------2-----------------|
D|-------5--------7-----5--|-------0--------0-----2--|-------5--------7-----5--|-------2-----------------|
A|-0--0-----0--0-----0-----|-0--0-----0--0-----0-----|-0--0-----0--0-----0-----|-0--0----/7--5-----------|
E|-------------------------|-------------------------|-------------------------|-------------------------|
  Mielummin   häviän  sinne             kuin  meen     hautaan   elävältä

   1  &  2  &  3  &  4  &  | 1  &  2  &  3  &  4  &  | 1  &  2  &  |
e|-------------------------|-------------------------|-------------|
B|-------------------------|-------------------------|-------------|
G|-------------------------|-------------------------|-------------|
D|-------------------------|-------------------------|<7>----------|
A|----------5--3~~~~-------|-------------------------|<7>----------|
E|-------------------------|-------------------------|<7>----------|


[Solo] (Rhythm guitar plays [Verse] riff)
   1  &  2  &  3  &  4  &  | 1  &  2  &  3   &  4  &  | 1  &  2  &  3  &  4  &  | 1  &  2  &  3  &  4  &  |
e|-------------------------|--------------------------|-------------------------|-------------------------|
B|-------------------------|--------------------------|-------------------------|-------------------------|
G|---pb<6>r5-b6-r5-b6------|-7-----------9p7p6--7p6---|-5-b6--------------------|-------------------55-77-|
D|----------------------7p5|------------------9----9p7|----------7-----5p4------|-4--------44-55-77-------|
A|-------------------------|--------------------------|-------------------7p5---|-------------------------|
E|-------------------------|--------------------------|-------------------------|-------------------------|
                                                         
   1 & 2 &  3  &  4     &  |1 &  2    &  3  &  4    &   | 1  &   2  &   3   &  4    &  |
e|-------------------------|----------------------------|----12------------------------|
B|-------------8--10p8-----|--8--10p8-------8--10p8-----|--12-15p12--12h15p12----------|
G|-5----/9--------------9--|----------9-------------9/14|-14--------14------14-12h14---|
D|-------------------------|----------------------------|---------------------------14-|
A|-------------------------|----------------------------|------------------------------|
E|-------------------------|----------------------------|------------------------------|

   1        &        2        &        3  &  4  &  | 1  &  2  &  3  &  4  &  | 1  &  2  &  3  &  4  &  |
e|-------------------------------------------------|-------------------------|-------------------------|
B|-------------------------------------------------|----------------------3--|----------3--------------|
G|----------------------------------------------2--|----------------2-----0--|----------2-----------2--|
D|-12h14p12-------------------------------------2--|----------------2-----0--|----------0-----------2--|
A|----------12h14p12------------------/10-------0--|----------------0--------|----------------------0--|
E|-------------------12h15p12-10h12p10-------------|----------------------3--|----------2-----2--3-----|

   1  &  2  &  3  &  4  &  | 1  &  2  &  3  &  4  &  | 1  &  2  &  3  &  4   &  | 1   &   2  &  3  &  4  &  |
e|-------------------------|-------------------------|--------------------------|---------------------------|
B|-------------------------|-------------------------|--------------------------|---------------------------|
G|-------------------------|-4--------7-----------5b-|--------------------------|---------------------------|
D|----------------2--4-----|-5--------7--------------|----------7-----5---------|---------------------------|
A|----------3-/4-----------|-------------------------|-------------------7/5-3--|-5b6r5p3-5-----3-----5-----|
E|-------------------------|-------------------------|--------------------------|------------5-----5--------|

   1  &  2  &   3  &   4   &  | 1  &  2  &  3  &  4  &  |
e|/4--7-/7--10-/9--12-/12--15-|-b--b--b-----------------|
B|----------------------------|-------------------------|
G|----------------------------|-------------------------|
D|----------------------------|-------------------------|
A|----------------------------|-------------------------|
E|----------------------------|-------------------------|

[Chorus]
   1  &  2  &  3  &  4  &  | 1  &  2  &  3  &  4  &  | 1  &  2  &  3  &  4  &  | 1  &  2  &  3  &  4  &  |
e|-------------------------|-------------------------|-------------------------|-------------------------|
B|-------------------------|-------------------------|-------------------------|-------------------------|
G|-------2--------7-----5--|-------0--------0-----2--|-------5--------7-----5--|-------2-----------------|
D|-------2--------7-----5--|-------0--------0-----2--|-------5--------7-----5--|-------2-----------------|
A|-0--0-----0--0-----0-----|-0--0-----0--0-----0-----|-0--0-----0--0-----0-----|-0--0----/7--5--------0--|
E|-------------------------|-------------------------|-------------------------|-------------------------|
         Mielummin           makaan                     Raatona     maantiellä

   1  &  2  &  3  &  4  &  | 1  &  2  &  3  &  4  &  | 1  &  2  &  3  &  4  &  | 1  &  2  &  3  &  4  &  |
e|-------------------------|-------------------------|-------------------------|-------------------------|
B|-------------------------|-------------------------|-------------------------|-------------------------|
G|-------5--------7-----5--|-------0--------0-----2--|-------5--------7-----5--|-------2-----------------|
D|-------5--------7-----5--|-------0--------0-----2--|-------5--------7-----5--|-------2-----------------|
A|-0--0-----0--0-----0-----|-0--0-----0--0-----0-----|-0--0-----0--0-----0-----|-0--0----/7--5--------0--|
E|-------------------------|-------------------------|-------------------------|-------------------------|
  Mielummin   häviän  sinne             kuin  meen     hautaan   elävältä

   1  &  2  &  3  &  4  &  | 1  &  2  &  3  &  4  &  | 1  &  2  &  3  &  4  &  | 1  &  2  &  3  &  4  &  |
e|-------------------------|-------------------------|-------------------------|-------------------------|
B|-------------------------|-------------------------|-------------------------|-------------------------|
G|-------5--------7-----5--|-------0--------0-----2--|-------5--------7-----5--|-------2-----------------|
D|-------5--------7-----5--|-------0--------0-----2--|-------5--------7-----5--|-------2-----------------|
A|-0--0-----0--0-----0-----|-0--0-----0--0-----0-----|-0--0-----0--0-----0-----|-0--0----/7--5--------0--|
E|-------------------------|-------------------------|-------------------------|-------------------------|
         Mielummin           makaan                     Raatona     maantiellä

   1  &  2  &  3  &  4  &  | 1  &  2  &  3  &  4  &  | 1  &  2  &  3  &  4  &  | 1  &  2  &  3  &  4  &  |
e|-------------------------|-------------------------|-------------------------|-------------------------|
B|-------------------------|-------------------------|-------------------------|-------------------------|
G|-------5--------7-----5--|-------0--------0-----2--|-------5--------7-----5--|-------2-----------------|
D|-------5--------7-----5--|-------0--------0-----2--|-------5--------7-----5--|-------2-----------------|
A|-0--0-----0--0-----0-----|-0--0-----0--0-----0-----|-0--0-----0--0-----0-----|-0--0----/7--5-----------|
E|-------------------------|-------------------------|-------------------------|-------------------------|
  Mielummin   häviän  sinne             kuin  meen     hautaan   elävältä


   1  &  2  &  3  &  4  &  | 1  &  2  &  3  &  4  &  | 1  &  2  &  3  &  4  &  | 1  &  2  &  3  &  4  &  | 
e|-------------------------|-------------------------|-------------------------|-------------------------|
B|-------------------------|-------------------------|-------------------------|-------------------------|
G|-------------------------|-------------------------|-------------------------|-------------------------|
D|-------------------------|-------------------------|-------------------------|-------------------------|
A|----------5--3~~~~-------|---------/7--5-----------|----------5--3~~~~-------|-------------------------|
E|-------------------------|-------------------------|-------------------------|-------------------------|

End on A

************************************

| h   Hammer-on
| p   Pull-off
| r   Release
| <>  Harmonic
| b   Bend
| pb  Pre-bend
| /   Slide up
| \   Slide down
| ~   Vibrato

************************************
Suggest correction
Creating personal tab
Creating personal tab
You can edit any tab online and save it as your Personal.

You can edit, replace or remove any tab part or add personal notes – all changes will be seen only by you.

Personal tabs can be accessed anytime from any device, even offline.
Learn more »
Give kudos to tab author, rate the tab!
1 2 3 4 5
comments
print report bad tab
guest
You may want to rate the tab now too:
select rating
Wanna post a correction for this tab? Suggest correction