Oops, an error
Loading. Please wait.

Малолетние Шалавы chords

version 1
version 1

Whole song

Interactive

31 views 3 this week
no commentswrite comment
1 2 3 4 5
3 more votes to show rating
add to favorites
×
Save as Personal and add changes to this tab that will be seen only by you. Learn more ›
×
You can save this tab as Personal to edit and correct it or add notes. All changes will be seen only by you. Learn more »
launch autoscroll
font size
0
reset
transpose
0
reset
simplify chords
display chords
guitar tuner
edit
Autoscroll
slow
fast
+/-
esc
set tempo
stop
Strumming
There is no strumming pattern for this song yet. and get +5 IQ
[Intro]
e|-----3-2-0-------------------3-2-0-|-----3-2-0-------------------3-2-0-|
B|-----0-0-----3-1-0---3-1-0---0-0---|-----0-0-----3-1-0---3-1-0---0-0---|
G|---0-------0-------0-------2-------|---0-------0-------0-------2-------|
D|-----------------------------------|-----------------------------------|
A|---------3---------------2---------|---------3---------------2---------|
E|-0---------------3---------------0-|-0---------------3---------------0-|

[Verse 1]
      Em         C         G         B7      Em
e|-----0---------0---------1---------3-2-----0----|
B|-----0---------1---------0---------0-0-----0----|
G|---0---0-----0---0-----0---0-----2-------0---0--|
D|------------------------------------------------|
A|-----------3----------2-------------------------|
E|--0-----------------------------0-------0-------|

Em     C        G    B7  Em
   Малолетние шалавы,
      Em
   На тусовку собрались,
C        D     G     B7
   Мнутся на ногах костлявых
        Em
   Все изрядно нажрались.

e|-----3-2-0-------------------3-2-0-|-----3-2-0-------------------3-2-0-|
B|-----0-0-----3-1-0---3-1-0---0-0---|-----0-0-----3-1-0---3-1-0---0-0---|
G|---0-------0-------0-------2-------|---0-------0-------0-------2-------|
D|-----------------------------------|-----------------------------------|
A|---------3---------------2---------|---------3---------------2---------|
E|-0---------------3---------------0-|-0---------------3---------------0-|

[Verse 2]
      Em         C         G         B7      Em
e|-----0---------0---------1---------3-2-----0----|
B|-----0---------1---------0---------0-0-----0----|
G|---0---0-----0---0-----0---0-----2-------0---0--|
D|------------------------------------------------|
A|-----------3----------2-------------------------|
E|--0-----------------------------0-------0-------|

Em     C        G    B7  Em
   В угол бросили тетрадки,
      Em
   Было к вечеру у них,
Em     C        G    B7  Em
   Две дешёвых шоколадки
      Em
   Пять бутылок на троих.

e|-----3-2-0-------------------3-2-0-|-----3-2-0-------------------3-2-0-|
B|-----0-0-----3-1-0---3-1-0---0-0---|-----0-0-----3-1-0---3-1-0---0-0---|
G|---0-------0-------0-------2-------|---0-------0-------0-------2-------|
D|-----------------------------------|-----------------------------------|
A|---------3---------------2---------|---------3---------------2---------|
E|-0---------------3---------------0-|-0---------------3---------------0-|

[Verse 3]
      Em         C         G         B7      Em
e|-----0---------0---------1---------3-2-----0----|
B|-----0---------1---------0---------0-0-----0----|
G|---0---0-----0---0-----0---0-----2-------0---0--|
D|------------------------------------------------|
A|-----------3----------2-------------------------|
E|--0-----------------------------0-------0-------|

Em     C        G    B7  Em
   У подруг заняли шмоток
      Em
   И напудрили носы
Em     C        G    B7 Em
   А одна из них надела,
      Em
   Даже чистые трусы.

e|-----3-2-0-------------------3-2-0-|-----3-2-0-------------------3-2-0-|
B|-----0-0-----3-1-0---3-1-0---0-0---|-----0-0-----3-1-0---3-1-0---0-0---|
G|---0-------0-------0-------2-------|---0-------0-------0-------2-------|
D|-----------------------------------|-----------------------------------|
A|---------3---------------2---------|---------3---------------2---------|
E|-0---------------3---------------0-|-0---------------3---------------0-|

[Verse 4]
      Em         C         G         B7      Em
e|-----0---------0---------1---------3-2-----0----|
B|-----0---------1---------0---------0-0-----0----|
G|---0---0-----0---0-----0---0-----2-------0---0--|
D|------------------------------------------------|
A|-----------3----------2-------------------------|
E|--0-----------------------------0-------0-------|

Em     C        G    B7 Em
   А на центре иномарки
      Em
   Тут идет вечерний съем
Em     C        G    B7 Em
   И подружки завалились,
      Em
   Прямо в тачку все втроем.

[Solo]
e|-3-2-0---------------------2--0-|
B|-------3-1-0--3-0-------4-------|
G|-------------------2-4----------|
D|--------------------------------|
A|--------------------------------|
E|--------------------------------|

[Verse 5]
      Em         C         G         B7      Em
e|-----0---------0---------1---------3-2-----0----|
B|-----0---------1---------0---------0-0-----0----|
G|---0---0-----0---0-----0---0-----2-------0---0--|
D|------------------------------------------------|
A|-----------3----------2-------------------------|
E|--0-----------------------------0-------0-------|

Em     C        G    B7 Em
   И поехали кататься
      Em
   Не известно даже с кем
Em     C        G    B7  Em
   Девкам главное догнаться
      Em
   Остальное без проблем

e|-----3-2-0-------------------3-2-0-|-----3-2-0-------------------3-2-0-|
B|-----0-0-----3-1-0---3-1-0---0-0---|-----0-0-----3-1-0---3-1-0---0-0---|
G|---0-------0-------0-------2-------|---0-------0-------0-------2-------|
D|-----------------------------------|-----------------------------------|
A|---------3---------------2---------|---------3---------------2---------|
E|-0---------------3---------------0-|-0---------------3---------------0-|

[Verse 6]
      Em         C         G         B7      Em
e|-----0---------0---------1---------3-2-----0----|
B|-----0---------1---------0---------0-0-----0----|
G|---0---0-----0---0-----0---0-----2-------0---0--|
D|------------------------------------------------|
A|-----------3----------2-------------------------|
E|--0-----------------------------0-------0-------|

Em     C        G    B7  Em
   Где-то в загородной бане,
      Em
   Телки водку будут жрать.
Em     C        G    B7  Em
   На столе стуча ногами.
      Em
   Танцы для братвы плясать.

e|-----3-2-0-------------------3-2-0-|-----3-2-0-------------------3-2-0-|
B|-----0-0-----3-1-0---3-1-0---0-0---|-----0-0-----3-1-0---3-1-0---0-0---|
G|---0-------0-------0-------2-------|---0-------0-------0-------2-------|
D|-----------------------------------|-----------------------------------|
A|---------3---------------2---------|---------3---------------2---------|
E|-0---------------3---------------0-|-0---------------3---------------0-|

[Verse 7]
      Em         C         G         B7      Em
e|-----0---------0---------1---------3-2-----0----|
B|-----0---------1---------0---------0-0-----0----|
G|---0---0-----0---0-----0---0-----2-------0---0--|
D|------------------------------------------------|
A|-----------3----------2-------------------------|
E|--0-----------------------------0-------0-------|

Em     C        G    B7  Em
   Вот такая вот прогулка,
     Em
   На машине с ветерком
Em     C        G    B7  Em
   А к утру косяк задолбим,
      Em
   Завтра в школу не пойдем

e|-----3-2-0-------------------3-2-0-|-----3-2-0-------------------3-2-0-|
B|-----0-0-----3-1-0---3-1-0---0-0---|-----0-0-----3-1-0---3-1-0---0-0---|
G|---0-------0-------0-------2-------|---0-------0-------0-------2-------|
D|-----------------------------------|-----------------------------------|
A|---------3---------------2---------|---------3---------------2---------|
E|-0---------------3---------------0-|-0---------------3---------------0-|

Em     C        G    B7  Em
   Завтра в школу не пойдеоо-оо-о-ом
      Em
   Завтра в школу не пойдем
Em     C        G    B7  Em
   Завтра в школу не пойдеоо-оо-о-ом
      Em
   Завтра в школу не пойдем

            
            
Suggest correction
Creating personal tab
Creating personal tab
You can edit any tab online and save it as your Personal.

You can edit, replace or remove any tab part or add personal notes – all changes will be seen only by you.

Personal tabs can be accessed anytime from any device, even offline.
Learn more »
Give kudos to tab author, rate the tab!
1 2 3 4 5
comments
print report bad tab
guest
You may want to rate the tab now too:
select rating
Wanna post a correction for this tab? Suggest correction