Oops, an error
Loading. Please wait.

Ławka Acoustic tab

10 views 1 this week
no commentswrite comment
1 2 3 4 5
1 last vote to show rating
add to favorites
×
Save as Personal and add changes to this tab that will be seen only by you. Learn more ›
×
You can save this tab as Personal to edit and correct it or add notes. All changes will be seen only by you. Learn more »
launch autoscroll
font size
0
reset
how to read this tab
guitar tuner
edit
Autoscroll
slow
fast
+/-
esc
set tempo
stop
About this tab version
First tab for this song - For acoustic guitar and vocal. It has some voicings to catch the chorus harmony, and includes the riff on the verse. Was this info helpful? Yes No
   Formacja Nieżywych Schabuff - Ławka
   Arrangement for acoustic guitar

[Intro]
      Bm                              D5                             
      1   +   2   +   3   +   4   +    1   +   2   +   3   +   4   +   
   |--------------------------x-----|----------------------0---x-----|
   |----------3---3---3---3---x---3-|------3---3---2-h-3---3---x---2-|
   |----------4---4---4---4---x---2-|------2---2---2---2-------x---2-|
   |----------4-------4-------x-----|--0-----------------------x-----|
   |--2-----------------------------|--------------------------------|
   |--------------------------------|--------------------------------|
   
       A                               F#m                           
      1   +   2   +   3   +   4   +    1   +   2   +   3   +   4   +  
   |--------------------------x-----|--------------------------x-----|
   |----------2---2---2---2---x---2-|------2---2---2---2---2---x-----|
   |----------2---2---2---2---x---2-|------2---2---2---2---2---x---4-|
   |----------2-------2-------x-----|----------4-------4-------x---4-|
   |--0-----------------------------|--------------------------------|
   |--------------------------------|--2-----------------------------|
   
      Bm                              D5                             
      1   +   2   +   3   +   4   +    1   +   2   +   3   +   4   +  
   |-------------------------x------|----------------------0---x-----|
   |---------3---3---3---3---x---3--|------3---3---2-h-3---3---x---2-|
   |---------4---4---4---4---x---2--|------2---2---2---2-------x---2-|
   |---------4-------4-------x------|--0-----------------------x-----|
   |--2-----------------------------|--------------------------------|
   |--------------------------------|--------------------------------|
   
      A                                F#m                          
      1   +   2   +   3   +   4   +    1   +   2   +   3   +   4   +  
   |--------------------------x-----|--------------------------x-----|
   |----------2---2---2---2---x---2-|------2---2---2---2---2---x-----|
   |----------2---2---2---2---x---2-|------2---2---2---2---2---x---4-|
   |----------2-------2-------x-----|----------4-------4-------x---4-|
   |--0-----------------------------|--------------------------------|
   |--------------------------------|--2-----------------------------|
   
[Verse 1]
      Bm                               D                              
      1   +   2   +   3   +   4   +    1   +   2   +   3   +   4   +  
   |--------------------------------|--------------2-----------------|
   |--------------------------------|----------3-----------3-------3-|
   |--4---4-------------------------|----------2---------------2-----|
   |--4-------0---2---4---2---0-----|--0---------------0-------------|
   |--2---------------------------2-|--------------------------------|
   |--------------------------------|--------------------------------|
  Widzia-łem ją dzi  -  siaj,             tak  o   po-ran  -  ku,     

      A                                F#m                          
      1   +   2   +   3   +   4   +    1   +   2   +   3   +   4   +  
   |--------------------------------|--------------2-----------------|
   |--------------------------------|----------2-----------2-------2-|
   |--2---2-------------------------|----------2---------------2-----|
   |--2---2-------0---2---0---------|----------4-------4-------------|
   |--0-------4---------------4---0-|----------4-------4-------------|
   |--------------------------------|--2-----------------------------|
        Czy- ta- ła  ksi-ąż -kę  na   ław  - ce w par  -  ku. 

      Bm                               D                              
      1   +   2   +   3   +   4   +    1   +   2   +   3   +   4   +  
   |--------------------------------|--------------2-----------------|
   |--------------------------------|----------3-----------3-------3-|
   |--4---4-------------------------|----------2---------------2-----|
   |--4-------0---2---4---2---0-----|--0---------------0-------------|
   |--2---------------------------2-|--------------------------------|
   |--------------------------------|--------------------------------|
 Jak kot     podszed  -  łem,    na  brze-gu   u-siad  -  łem,        

      A                                F#m                          
      1   +   2   +   3   +   4   +    1   +   2   +   3   +   4   +  
   |--------------------------------|--------------2-----------------|
   |--------------------------------|----------2-----------2-------2-|
   |--2---2-------------------------|----------2---------------2-----|
   |--2---2-------0---2---0---------|----------4-------4-------------|
   |--0-------4---------------4---0-|----------4-------4-------------|
   |--------------------------------|--2-----------------------------|
        Podnios-ła   oczy,       a    ja   od  -  pa  –  dłe  -  em. 


[Chorus 1]
      D                                D                              
      1   +   2   +   3   +   4   +    1   +   2   +   3   +   4   +  
   |--2-----------2-----------------|--2-----------3---3-----------0-|
   |--3-------3-----------3-------3-|--3---3---3-------3---3-------3-|
   |--2-------2---------------2-----|--2---2---2-------2-------2-----|
   |--0---------------0-------------|--0---------------0-------------|
   |--------------------------------|--------------------------------|
   |--------------------------------|--------------------------------|
                         Czy ktoś ich jeszcze     ra   -  zem     wi  

      A                                A                              
      1   +   2   +   3   +   4   +    1   +   2   +   3   +   4   +  
   |--0-----------0-----------------|--------------0-----------------|
   |--2-------2-----------2-------2-|----------2-----------2-------2-|
   |--2-------2-----------2---2---2-|----------2-----------2---2---2-|
   |--2-------2-------2-------2-----|--2-------2-------2-------2-----|
   |--0-----------------------------|--0-----------------------------|
   |--------------------------------|--------------------------------|
   -  dzi- ał?       Czy ktoś co - kolwi – ek      o  nich    wie? 

      Bm                               Bm                             
      1   +   2   +   3   +   4   +    1   +   2   +   3   +   4   +  
   |--------------------------------|--------------------------------|
   |----------x---3-------3---x---3-|------3---x---3-------3---x---0-|
   |--4-------x---4-------4---x---4-|------4---x---4-------4---x---0-|
   |--4-------x---4-------4---x---4-|------4---x---3-------4---x---0-|
   |--2-------x---------------x-----|----------x---------------------|
   |--------------------------------|--------------------------------|
              O nie,          o nie,           o nie      Czy za- ko –

      G                                Gm                             
      1   +   2   +   3   +   4   +    1   +   2   +   3   +   4   +  
   |--------------3-----------------|----------------------0-------2-|
   |----------0-----------0---------|------1-------3-----------------|
   |----------0-------------------0-|--3-----------------------0-----|
   |----------0---------------------|------------------0-------------|
   |----------x---------------------|--------------------------------|
   |--3-----------------------3-----|----------3---------------------|
     cha-li  się? 

      D                                D                              
      1   +   2   +   3   +   4   +    1   +   2   +   3   +   4   +  
   |--2-----------2-----------------|--2-----------3---3-----------0-|
   |--3-------3-----------3-------3-|--3---3---3-------3---3-------3-|
   |--2-------2---------------2-----|--2---2---2-------2-------2-----|
   |--0---------------0-------------|--0---------------0-------------|
   |--------------------------------|--------------------------------|
   |--------------------------------|--------------------------------|
                         Czy ktoś ich jeszcze     ra   -  zem     wi   

      A                                A                              
      1   +   2   +   3   +   4   +    1   +   2   +   3   +   4   +  
   |--0-----------0-----------------|--------------0-----------------|
   |--2-------2-----------2-------2-|----------2-----------2-------2-|
   |--2-------2-----------2---2---2-|----------2-----------2---2---2-|
   |--2-------2-------2-------2-----|--2-------2-------2-------2-----|
   |--0-----------------------------|--0-----------------------------|
   |--------------------------------|--------------------------------|
    -   dzi - ał?        Czy ktoś co - kolwi – ek      o  nich    wie?



      Bm                               Bm                             
      1   +   2   +   3   +   4   +    1   +   2   +   3   +   4   +  
   |--------------------------------|--------------------------------|
   |----------x---3-------3---x---3-|------3---x---3-------3---x---0-|
   |--4-------x---4-------4---x---4-|------4---x---4-------4---x---0-|
   |--4-------x---4-------4---x---4-|------4---x---3-------4---x---0-|
   |--2-------x---------------x-----|----------x---------------------|
   |--------------------------------|--------------------------------|
              O nie,          o nie,           o nie          Czy ko –

      G                                G(#9)                         
      1   +   2   +   3   +   4   +    1   +   2   +   3   +   4   +  
   |--------------3-----------------|--6---6---6---6---6---6---6---5-|
   |----------0-----------0---------|--0---0---0---0---0---0---0-----|
   |----------0-------------------0-|--0-------0-------0-------0-----|
   |----------0---------------------|--0-------0-------0-------0-----|
   |----------x---------------------|--x-----------------------------|
   |--3-----------------------3-----|--6-----------------------------|
     cha-ją      się?

      Bm                              D5                             
      1   +   2   +   3   +   4   +    1   +   2   +   3   +   4   +   
   |--------------------------x-----|----------------------0---x-----|
   |----------3---3---3---3---x---3-|------3---3---2-h-3---3---x---2-|
   |----------4---4---4---4---x---2-|------2---2---2---2-------x---2-|
   |----------4-------4-------x-----|--0-----------------------x-----|
   |--2-----------------------------|--------------------------------|
   |--------------------------------|--------------------------------|
   
       A                               F#m                           
      1   +   2   +   3   +   4   +    1   +   2   +   3   +   4   +  
   |--------------------------x-----|--------------------------x-----|
   |----------2---2---2---2---x---2-|------2---2---2---2---2---x-----|
   |----------2---2---2---2---x---2-|------2---2---2---2---2---x---4-|
   |----------2-------2-------x-----|----------4-------4-------x---4-|
   |--0-----------------------------|--------------------------------|
   |--------------------------------|--2-----------------------------|
    


[Verse 2]
      Bm                               D                              
      1   +   2   +   3   +   4   +    1   +   2   +   3   +   4   +  
   |--------------------------------|--------------2-----------------|
   |--------------------------------|----------3-----------3-------3-|
   |--4---4-------------------------|----------2---------------2-----|
   |--4-------0---2---4---2---0-----|--0---------------0-------------|
   |--2---------------------------2-|--------------------------------|
   |--------------------------------|--------------------------------|
     Sta-liś-my   o– sob-no,      a   poszliś-my  ra   -  zem,        


      A                                F#m                          
      1   +   2   +   3   +   4   +    1   +   2   +   3   +   4   +  
   |--------------------------------|--------------2-----------------|
   |--------------------------------|----------2-----------2-------2-|
   |--2---2-------------------------|----------2---------------2-----|
   |--2---2-------0---2---0---------|----------4-------4-------------|
   |--0-------4---------------4---0-|----------4-------4-------------|
   |--------------------------------|--2-----------------------------|
         By spot-kać się zno-wu  na   ław-ce  za  sta  -  wem. 

      Bm                               D                              
      1   +   2   +   3   +   4   +    1   +   2   +   3   +   4   +  
   |--------------------------------|--------------2-----------------|
   |--------------------------------|----------3-----------3-------3-|
   |--4---4-------------------------|----------2---------------2-----|
   |--4-------0---2---4---2---0-----|--0---------------0-------------|
   |--2---------------------------2-|--------------------------------|
   |--------------------------------|--------------------------------|
    Chciałaś po-wiedzieć,         a   ja  Ci  przerwa  -  łem,       

      A                                F#m                          
      1   +   2   +   3   +   4   +    1   +   2   +   3   +   4   +  
   |--------------------------------|--------------2-----------------|
   |--------------------------------|----------2-----------2-------2-|
   |--2---2-------------------------|----------2---------------2-----|
   |--2---2-------0---2---0---------|----------4-------4-------------|
   |--0-------4---------------4---0-|----------4-------4-------------|
   |--------------------------------|--2-----------------------------|
         Nieste- ty  nie wiem    co    by - ło     da  -  le   -  ej. 



[Chorus 2 and 3]
      D                                D                              
      1   +   2   +   3   +   4   +    1   +   2   +   3   +   4   +  
   |--2-----------2-----------------|--2-----------3---3-----------0-|
   |--3-------3-----------3-------3-|--3---3---3-------3---3-------3-|
   |--2-------2---------------2-----|--2---2---2-------2-------2-----|
   |--0---------------0-------------|--0---------------0-------------|
   |--------------------------------|--------------------------------|
   |--------------------------------|--------------------------------|
                         Czy ktoś ich jeszcze     ra   -  zem     wi  

      A                                A                              
      1   +   2   +   3   +   4   +    1   +   2   +   3   +   4   +  
   |--0-----------0-----------------|--------------0-----------------|
   |--2-------2-----------2-------2-|----------2-----------2-------2-|
   |--2-------2-----------2---2---2-|----------2-----------2---2---2-|
   |--2-------2-------2-------2-----|--2-------2-------2-------2-----|
   |--0-----------------------------|--0-----------------------------|
   |--------------------------------|--------------------------------|
   -  dzi- ał?       Czy ktoś co - kolwi – ek      o  nich    wie? 

      Bm                               Bm                             
      1   +   2   +   3   +   4   +    1   +   2   +   3   +   4   +  
   |--------------------------------|--------------------------------|
   |----------x---3-------3---x---3-|------3---x---3-------3---x---0-|
   |--4-------x---4-------4---x---4-|------4---x---4-------4---x---0-|
   |--4-------x---4-------4---x---4-|------4---x---3-------4---x---0-|
   |--2-------x---------------x-----|----------x---------------------|
   |--------------------------------|--------------------------------|
              O nie,          o nie,           o nie      Czy za- ko –

      G                                Gm                             
      1   +   2   +   3   +   4   +    1   +   2   +   3   +   4   +  
   |--------------3-----------------|----------------------0-------2-|
   |----------0-----------0---------|------1-------3-----------------|
   |----------0-------------------0-|--3-----------------------0-----|
   |----------0---------------------|------------------0-------------|
   |----------x---------------------|--------------------------------|
   |--3-----------------------3-----|----------3---------------------|
     cha-li  się? 

      D                                D                              
      1   +   2   +   3   +   4   +    1   +   2   +   3   +   4   +  
   |--2-----------2-----------------|--2-----------3---3-----------0-|
   |--3-------3-----------3-------3-|--3---3---3-------3---3-------3-|
   |--2-------2---------------2-----|--2---2---2-------2-------2-----|
   |--0---------------0-------------|--0---------------0-------------|
   |--------------------------------|--------------------------------|
   |--------------------------------|--------------------------------|
                         Czy ktoś ich jeszcze     ra   -  zem     wi   

      A                                A                              
      1   +   2   +   3   +   4   +    1   +   2   +   3   +   4   +  
   |--0-----------0-----------------|--------------0-----------------|
   |--2-------2-----------2-------2-|----------2-----------2-------2-|
   |--2-------2-----------2---2---2-|----------2-----------2---2---2-|
   |--2-------2-------2-------2-----|--2-------2-------2-------2-----|
   |--0-----------------------------|--0-----------------------------|
   |--------------------------------|--------------------------------|
    -   dzi - ał?        Czy ktoś co - kolwi – ek      o  nich    wie?



      Bm                               Bm                             
      1   +   2   +   3   +   4   +    1   +   2   +   3   +   4   +  
   |--------------------------------|--------------------------------|
   |----------x---3-------3---x---3-|------3---x---3-------3---x---0-|
   |--4-------x---4-------4---x---4-|------4---x---4-------4---x---0-|
   |--4-------x---4-------4---x---4-|------4---x---3-------4---x---0-|
   |--2-------x---------------x-----|----------x---------------------|
   |--------------------------------|--------------------------------|
              O nie,          o nie,           o nie          Czy ko –


      G                                Gm                             
      1   +   2   +   3   +   4   +    1   +   2   +   3   +   4   +  
   |--------------3-----------------|----------------------0-------2-|
   |----------0-----------0---------|------1-------3-----------------|
   |----------0-------------------0-|--3-----------------------0-----|
   |----------0---------------------|------------------0-------------|
   |----------x---------------------|--------------------------------|
   |--3-----------------------3-----|----------3---------------------|
   – cha-ją      się?


Legend:
x - chuck/right-hand slap
2 h 3 - fret 2nd and hammer on the 3rd fret
Suggest correction
Creating personal tab
Creating personal tab
You can edit any tab online and save it as your Personal.

You can edit, replace or remove any tab part or add personal notes – all changes will be seen only by you.

Personal tabs can be accessed anytime from any device, even offline.
Learn more »
Give kudos to tab author, rate the tab!
1 2 3 4 5
comments
print report bad tab
guest
You may want to rate the tab now too:
select rating
Wanna post a correction for this tab? Suggest correction