Oops, an error
Loading. Please wait.

Hon Wo Yomu 本を読む tab

version 1
version 1

Whole song

Interactive

by Scandal
85 views 3 this week
no commentswrite comment
1 2 3 4 5
1 last vote to show rating
add to favorites
×
Save as Personal and add changes to this tab that will be seen only by you. Learn more ›
×
You can save this tab as Personal to edit and correct it or add notes. All changes will be seen only by you. Learn more »
launch autoscroll
font size
0
reset
how to read this tab
guitar tuner
edit
Autoscroll
slow
fast
+/-
esc
set tempo
stop
Based on tabs writted by scandal-heaven community ( and my ear )
http://www.scandal-heaven.com/t941-list-of-all-tabs-in-scandal-heaven

Artist: SCANDAL
Song: Honn Wo Yomu
Album : Hello World ( 2014 )
Re-Tabbed by: Ninoss123
E-mail: romain.marmier@yahoo.fr

Tuning: Standard
Scale for Solo improvising : E Natural Minor Scale or easier : E minor Pentatonic

-- This tab only contains solos of the song, basicly when one of
the guitars plays this tab, the other one is playing simple chords --
Full Chords can be found there :
https://tabs.ultimate-guitar.com/tab/1868173


Here's the intro which is also the verse, there are two ways to play it, one is tabbed
as "Intro", the other one as "Verse", feel free to choose the one you prefer !

[Intro]
(0:00 > 0:15)
e|--------------|--------------|--------------|----------------------|
B|--8--8--8--8--|--7--7--8--8--|--5--5--5--5--|--4--4\--3-3-3-3-3/---|
G|--7--7--7--7--|--7--7--7--7\-|--5--5--5--5--|--5--5\--2-2-2-2-2/---| x1 Time
D|--------------|--------------|--------------|----------------------|
A|--------------|--------------|--------------|----------------------|
E|--------------|--------------|--------------|----------------------|

Sometimes a little variation happens :
e|--------------|(10)(10)-------|--------------|----------------------|
B|--8--8--8--8--|(10)(10)-8--8--|--5--5--5--5--|-8-8-8-8\--3-3-3-3-3/-| x1 Time
G|--7--7--7--7--|---------7--7\-|--5--5--5--5--|-7-7-7-7\--2-2-2-2-2/-|
D|--------------|---------------|--------------|----------------------|
A|--------------|---------------|--------------|----------------------|
E|--------------|---------------|--------------|----------------------|

[Verse]
(0:15 > 0:48)

e|------------------|------------------|------------------|-----------------------|
B|------------------|------------------|------------------|-----------------------|
G|--12--12--12--12--|--11--11--12--12--|--9---9---9---9\--|--8---8---7-7-7-7-7/---| x3 Times
D|--12--12--12--12--|--12--12--12--12\-|--10--10--10--10--|--10--10\-7-7-7-7-7/---|
A|--10--10--10--10--|--10--10--10--10--|--10--10--10--10--|--10--10--5-5-5-5-5/---|
E|------------------|------------------|------------------|-----------------------|

Little variation :
e|------------------|------------------|------------------|----------------------------|
B|------------------|--15--15----------|------------------|----------------------------| x1 Time
G|--12--12--12--12--|--14--14--12--12--|--9---9---9---9\--|-12-12-12-12\--7-7-7-7-7/---|
D|--12--12--12--12--|--12--12--12--12\-|--10--10--10--10--|-12-12-12-12\--7-7-7-7-7/---|
A|--10--10--10--10--|----------10--10--|--10--10--10--10--|-10-10-10-10\--5-5-5-5-5/---|
E|------------------|------------------|------------------|----------------------------|

[Pre-Chorus]
(0:48 > 1:01)
    C                                   D
e|--15-14-12-------------------------|--15-14-12--------------------------|
B|-----------15---13-12--13-15---15--|-----------15---13-12--13-15---15---|
G|-----------------------------------|------------------------------------|
D|-----------------------------------|------------------------------------|
A|-----------------------------------|------------------------------------|
E|-----------------------------------|------------------------------------|
    Em then G the 2nd time                                              x2 Times Until Chorus
e|--12------13-----15------12------12------13------15------12---|
B|------12-----12------12------12------12------12------12-------|
G|--------------------------------------------------------------|
D|--------------------------------------------------------------|
A|--------------------------------------------------------------|
E|--------------------------------------------------------------|

[Chorus]
(1:01 > 1:27)
    C                                    D
e|-------------------------------------|----------------------------------|
B|--15--15--15--15--15--15--15--15--15-|-10--10--10--10--15--15--15--15---|
G|-------------------------------------|----------------------------------|
D|--12--12--12--12--12--12--12--12--12-|-7---7---7---7---12--12--12--12---|
A|-------------------------------------|----------------------------------|
E|-------------------------------------|----------------------------------|

    Em                                   G
e|-------------------------------------|----------------------------------|
B|--15--15--15--15--15--15--15--15--15-|-12--12--12--12--12--12---13--12--|
G|-------------------------------------|----------------------------------|
D|--12--12--12--12--12--12--12--12--12-|-9---9---9---9---9---9----10--9---|
A|-------------------------------------|----------------------------------|
E|-------------------------------------|----------------------------------|

    C                                    D
e|-------------------------------------|----------------------------------|
B|--15--15--15--15--15--15--15--15--15-|-17--17--17--17--15--15--15--15---|
G|-------------------------------------|----------------------------------|
D|--12--12--12--12--12--12--12--12--12-|-14--14--14--14--12--12--12--12---|
A|-------------------------------------|----------------------------------|
E|-------------------------------------|----------------------------------|

    Em
e|-------------------------------------|----------------------------------|
B|--15--15--15--15--15--15--15--15--15-|-12--12--12--12--12--12---13--12--|
G|-------------------------------------|----------------------------------|
D|--12--12--12--12--12--12--12--12--12-|-9---9---9---9---9---9----10--9---|
A|-------------------------------------|----------------------------------|
E|-------------------------------------|----------------------------------|

    C                                    D
e|-------------------------------------|-----------------------------------|
B|--15--15--15--15--15--15--15--15--15-|-----------------------------------|
G|-------------------------------------|--11--11--11--11--11--11--11--11---|
D|--12--12--12--12--12--12--12--12--12-|-----------------------------------|
A|-------------------------------------|--9---9---9---9---9---9---9---9----|
E|-------------------------------------|-----------------------------------|

    G
e|-------------------------------------|-------------------------------------|
B|-------------------------------------|-------------------------------------|
G|--12--12--12--12--12--12--12--12--12-|-12--12--12--12--12--12--12--12--12--|
D|-------------------------------------|-------------------------------------|
A|--10--10--10--10--10--10--10--10--10-|-10--10--10--10--10--10--10--10--10--|
E|-------------------------------------|-------------------------------------|

     Little Thing
e|---15--14--12--10---|
B|---15--15--13--12---|
G|--------------------|
D|--------------------|
A|--------------------|
E|--------------------|

[Verse]
(1:27 > 1:41)

e|------------------|------------------|------------------|-----------------------|
B|------------------|------------------|------------------|-----------------------|
G|--12--12--12--12--|--11--11--12--12--|--9---9---9---9\--|--8---8---7-7-7-7-7/---| x1 Time
D|--12--12--12--12--|--12--12--12--12\-|--10--10--10--10--|--10--10\-7-7-7-7-7/---|
A|--10--10--10--10--|--10--10--10--10--|--10--10--10--10--|--10--10--5-5-5-5-5/---|
E|------------------|------------------|------------------|-----------------------|

Little variation :
e|------------------|------------------|------------------|----------------------------|
B|------------------|--15--15----------|------------------|----------------------------| x1 Time
G|--12--12--12--12--|--14--14--12--12--|--9---9---9---9\--|-12-12-12-12\--7-7-7-7-7/---|
D|--12--12--12--12--|--12--12--12--12\-|--10--10--10--10--|-12-12-12-12\--7-7-7-7-7/---|
A|--10--10--10--10--|----------10--10--|--10--10--10--10--|-10-10-10-10\--5-5-5-5-5/---|
E|------------------|------------------|------------------|----------------------------|

[Pre-Chorus]
(1:41 > 1:56)
    C                                   D
e|--15-14-12-------------------------|--15-14-12--------------------------|
B|-----------15---13-12--13-15---15--|-----------15---13-12--13-15---15---|
G|-----------------------------------|------------------------------------|
D|-----------------------------------|------------------------------------|
A|-----------------------------------|------------------------------------|
E|-----------------------------------|------------------------------------|
    Em then G the 2nd time                                                 x2 Times Until Chorus
e|--12------13-----15------12------12------13------15------12---|
B|------12-----12------12------12------12------12------12-------|
G|--------------------------------------------------------------|
D|--------------------------------------------------------------|
A|--------------------------------------------------------------|
E|--------------------------------------------------------------|

[Chorus]
(1:56 > 2:20)
    C                                    D
e|-------------------------------------|----------------------------------|
B|--15--15--15--15--15--15--15--15--15-|-10--10--10--10--15--15--15--15---|
G|-------------------------------------|----------------------------------|
D|--12--12--12--12--12--12--12--12--12-|-7---7---7---7---12--12--12--12---|
A|-------------------------------------|----------------------------------|
E|-------------------------------------|----------------------------------|

    Em                                   G
e|-------------------------------------|----------------------------------|
B|--15--15--15--15--15--15--15--15--15-|-12--12--12--12--12--12---13--12--|
G|-------------------------------------|----------------------------------|
D|--12--12--12--12--12--12--12--12--12-|-9---9---9---9---9---9----10--9---|
A|-------------------------------------|----------------------------------|
E|-------------------------------------|----------------------------------|

    C                                    D
e|-------------------------------------|----------------------------------|
B|--15--15--15--15--15--15--15--15--15-|-17--17--17--17--15--15--15--15---|
G|-------------------------------------|----------------------------------|
D|--12--12--12--12--12--12--12--12--12-|-14--14--14--14--12--12--12--12---|
A|-------------------------------------|----------------------------------|
E|-------------------------------------|----------------------------------|

    Em
e|-------------------------------------|----------------------------------|
B|--15--15--15--15--15--15--15--15--15-|-12--12--12--12--12--12---13--12--|
G|-------------------------------------|----------------------------------|
D|--12--12--12--12--12--12--12--12--12-|-9---9---9---9---9---9----10--9---|
A|-------------------------------------|----------------------------------|
E|-------------------------------------|----------------------------------|

    C                                    D
e|-------------------------------------|-----------------------------------|
B|--15--15--15--15--15--15--15--15--15-|-----------------------------------|
G|-------------------------------------|--11--11--11--11--11--11--11--11---|
D|--12--12--12--12--12--12--12--12--12-|-----------------------------------|
A|-------------------------------------|--9---9---9---9---9---9---9---9----|
E|-------------------------------------|-----------------------------------|

    G
e|-------------------------------------|-------------------------------------|
B|-------------------------------------|-------------------------------------|
G|--12--12--12--12--12--12--12--12--12-|-12--12--12--12--12--12--12--12--12--|
D|-------------------------------------|-------------------------------------|
A|--10--10--10--10--10--10--10--10--10-|-10--10--10--10--10--10--10--10--10--|
E|-------------------------------------|-------------------------------------|

[Bridge]
(2:20 > 2:29)
    C                                      D
e|-------------------------------------|--------------------------------------|
B|-------------------------------------|--------------------------------------|
G|--5--5--5--5-------------------------|---7--7--7--7-------------------------|
D|--5--5--5--5-------------------------|---7--7--7--7-------------------------|
A|--3--3--3--3-------------------------|---5--5--5--5-------------------------|
E|-------------------------------------|--------------------------------------|

     C                                      G
e|--------------------------------------|-------------------------------------------------|
B|--------------------------------------|-8-----8-----8-----8-----8--8--8--8--8--8--8--8--|or simple G chord :
G|---9--9--9--9-------------------------|----7-----7-----7-----7--7--7--7--7--7--7--7--7--|   /12
D|---9--9--9--9-------------------------|-------------------------------------------------|   /12
A|---7--7--7--7-------------------------|-------------------------------------------------|   /10
E|--------------------------------------|-------------------------------------------------|


[Solo]
(2:30 > 2:45)
   C                           D
e|---------------------------|---------------------------|
B|------15---13-12-----------|------15---13-12-----------|
G|-12--------------14-12--11-|-11--------------14-12--11-|
D|---------------------------|---------------------------|
A|---------------------------|---------------------------|
E|---------------------------|---------------------------|

   Em                          G
e|---------------------------|---------------------------|
B|------15---13-12-----------|------------------15-------|
G|-----------------14-12--11-|-------14----12------------|
D|-14------------------------|-12------------------------|
A|---------------------------|---------------------------|
E|---------------------------|---------------------------|

   C                           D
e|-----------15--------------|-14---15/17---15---14-----|
B|-13------------------------|--------------------------|
G|---------------------------|--------------------------|
D|---------------------------|--------------------------|
A|---------------------------|--------------------------|
E|---------------------------|--------------------------|

   Em                          G
e|-12~~~~~~~~~~14~~~~~~~~~~~~|~15~~~~~~~~~~17~~~~~~~~~~~~|
B|---------------------------|---------------------------|
G|---------------------------|---------------------------|
D|---------------------------|---------------------------|
A|---------------------------|---------------------------|
E|---------------------------|---------------------------|

[Chorus]
(2:45 > 3:08)
   C                                      D
e|~15~~~~~~~~~~~~~~~~~~~~~~~~~~~~~~~~~~~|----------------------------------|
B|--------------------------------------|----------------------------------|
G|--------------------------------------|----------------------------------|
D|--------------------------------------|----------------------------------|
A|--------------------------------------|----------------------------------|
E|--------------------------------------|----------------------------------|

    Em                                   G
e|-------------------------------------|----------------------------------|
B|-------------------------------------|/9---9---9---9---9---9---9---9----|
G|-------------------------------------|----------------------------------|
D|-------------------------------------|/5---5---5---5---5---5---5---5----|
A|-------------------------------------|----------------------------------|
E|-------------------------------------|----------------------------------|

    C                                    D
e|-------------------------------------|----------------------------------|
B|--17--17--17--17--17--17--17--17--17-|-17--17--17--17--15--15--15--15---|
G|-------------------------------------|----------------------------------|
D|--14--14--14--14--14--14--14--14--14-|-14--14--14--14--12--12--12--12---|
A|-------------------------------------|----------------------------------|
E|-------------------------------------|----------------------------------|

    Em
e|-------------------------------------|----------------------------------|
B|--15--15--15--15--15--15--15--15--15-|-12--12--12--12--12--12--12--12---|
G|-------------------------------------|----------------------------------|
D|--12--12--12--12--12--12--12--12--12-|-9---9---9---9---9---9---9---9----|
A|-------------------------------------|----------------------------------|
E|-------------------------------------|----------------------------------|

    C                                    D
e|-------------------------------------|-----------------------------------|
B|--15--15--15--15--15--15--15--15--15-|-----------------------------------|
G|-------------------------------------|--11--11--11--11--11--11--11--11---|
D|--12--12--12--12--12--12--12--12--12-|-----------------------------------|
A|-------------------------------------|--9---9---9---9---9---9---9---9----|
E|-------------------------------------|-----------------------------------|

    G
e|-------------------------------------|-------------------------------------|
B|-------------------------------------|-------------------------------------|
G|--12--12--12--12--12--12--12--12--12-|-12--12--12--12--12--12--12--12--12--|
D|-------------------------------------|-------------------------------------|
A|--10--10--10--10--10--10--10--10--10-|-10--10--10--10--10--10--10--10--10--|
E|-------------------------------------|-------------------------------------|

[Outro]
(3:08 > End)
    C                                    D
e|-------------------------------------|----------------------------------|
B|--15--15--15--15--15--15--15--15--15-|-10--10--10--10--15--15--15--15---|
G|-------------------------------------|----------------------------------|
D|--12--12--12--12--12--12--12--12--12-|-7---7---7---7---12--12--12--12---|
A|-------------------------------------|----------------------------------|
E|-------------------------------------|----------------------------------|

    Em                                   G
e|-------------------------------------|----------------------------------|
B|--15--15--15--15--15--15--15--15--15-|-12--12--12--12--12--12---13--12--|
G|-------------------------------------|----------------------------------|
D|--12--12--12--12--12--12--12--12--12-|-9---9---9---9---9---9----10--9---|
A|-------------------------------------|----------------------------------|
E|-------------------------------------|----------------------------------|

    C                                    D
e|-------------------------------------|----------------------------------|
B|--15--15--15--15--15--15--15--15--15-|-17--17--17--17--15--15--15--15---|
G|-------------------------------------|----------------------------------|
D|--12--12--12--12--12--12--12--12--12-|-14--14--14--14--12--12--12--12---|
A|-------------------------------------|----------------------------------|
E|-------------------------------------|----------------------------------|

    Em                                   G
e|-------------------------------------|----------------------------------|
B|--15--15--15--15--15--15--15--15--15-|-12--12--12--12--12--12---13--12--|
G|-------------------------------------|----------------------------------|
D|--12--12--12--12--12--12--12--12--12-|-9---9---9---9---9---9----10--9---|
A|-------------------------------------|----------------------------------|
E|-------------------------------------|----------------------------------|

    C                                    D
e|-------------------------------------|-----------------------------------|
B|--15--15--15--15--15--15--15--15--15-|-----------------------------------|
G|-------------------------------------|--11--11--11--11--11--11--11--11---|
D|--12--12--12--12--12--12--12--12--12-|-----------------------------------|
A|-------------------------------------|--9---9---9---9---9---9---9---9----|
E|-------------------------------------|-----------------------------------|

    G
e|-------------------------------------|-------------------------------------|
B|-------------------------------------|-------------------------------------|
G|--12--12--12--12--12--12--12--12--12-|-12--12--12--12--12--12--12--12--12--|
D|-------------------------------------|-------------------------------------|
A|--10--10--10--10--10--10--10--10--10-|-10--10--10--10--10--10--10--10--10--|
E|-------------------------------------|-------------------------------------|

Recap:

[Intro]
[Verse]
[Pre-Chorus]
[Chorus]
[Verse]
[Pre-Chorus]
[Chorus]
[Bridge]
[Solo]
[Chorus]
[Outro]

************************************
| /   Slide up
| \   Slide down
| ~   Vibrato
************************************

Feel Free to Comment !

            
            
Suggest correction
Creating personal tab
Creating personal tab
You can edit any tab online and save it as your Personal.

You can edit, replace or remove any tab part or add personal notes – all changes will be seen only by you.

Personal tabs can be accessed anytime from any device, even offline.
Learn more »
Give kudos to tab author, rate the tab!
1 2 3 4 5
comments
print report bad tab
guest
You may want to rate the tab now too:
select rating
Wanna post a correction for this tab? Suggest correction