Oops, an error
Loading. Please wait.

Magazine tab

166 views 3 this week
no commentswrite comment
1 2 3 4 5
2 more votes to show rating
add to favorites
×
Save as Personal and add changes to this tab that will be seen only by you. Learn more ›
×
You can save this tab as Personal to edit and correct it or add notes. All changes will be seen only by you. Learn more »
launch autoscroll
font size
0
reset
how to read this tab
guitar tuner
edit
Autoscroll
slow
fast
+/-
esc
set tempo
stop
About this tab version
It's different to other versions because it exists - not seen this tabbed so figured I'd throw it up there, no idea on it's accuracy to Tor-Arne's actual playing, but it's certainly a good starting point (and in some places, the music video literally tells you the chords... so those parts can't be that wrong. Was this info helpful? Yes No
[Intro]
e|-------------------------------------------------------------------------|
B|-------------------------------------------------------------------------|
G|--13-14-13-14-13-----13-13-13-14-13-14-13--9---9--9--9--11--11-9--9--9---|
D|--x--x--x--x--x------x--x--x--x--x--x--x---x---x--x--x--x---x--x--x--x---|
A|--11-12-11-12-11-----11-11-11-12-11-12-11--7---7--7--7--9---9--7--7--7---|
E|-------------------------------------------------------------------------|

e|-----------------------------------------------------------------------------------|
B|-----------------------------------------------------------------------------------|
G|--13-14-13-14-13-----13-13-13-14-13-14-13--16----13--13--13----14--14--14--14--14--|
D|--x--x--x--x--x------x--x--x--x--x--x--x---x-----x---x---x-----x---x---x---x---x---|
A|--11-12-11-12-11-----11-11-11-12-11-12-11--14----11--11--11----12--12--12--12--12--|
E|-----------------------------------------------------------------------------------|

[Verse]
(All palm mutes for this verse)
'Pickin' you up just to put you down again'
e|-------------------------------------------------------|
B|-------------------------------------------------------|
G|-------------------------------------------------------|
D|---------------------------------------------2---------|
A|---------------------------------------2h4-------4-----|
E|--0--0--0--0--4--4--4--4--5--5--5--5-------------------|

'What the hell is an 'It-girl' anyway?'     'how do I get it-'
e|------------------------------------------------------------|
B|------------------------------------------------------------|
G|-------------------------------------------------4h6--------|
D|------------------------------------------4h6---------------|
A|------------------------------------------------------------|
E|--0-0-0-0--4-4-4-4--2-2-2-2--4-2----------------------------|

'-lose it, have it, want it?', 'I think I'm done with this part'
e|-----------------------------------------------------|
B|-----------------------------------------------------|
G|-----------------------------------------------------|
D|--------------------------------------------6----6---|
A|----------------------------------4-4---4----4-------|
E|--0-0-0-0--4-4-4-4--5-5-5-5--------------------------|

'I quit...'              'I quit.'
e|--------------------------------------------------|
B|--------------------------------------------------|
G|--------------------------------------------------|
D|--------------------------------------------------|
A|---------------------------------------4-2--------|
E|--0-0-0-0--4-4-4-4--2-2-2-2--4-2------------------|

[Pre-Chorus]
'Patti Smith would never put up with this shit' (x3)
Change chords on every 'Patti' and 'Put'-
on the third time this line's repeated, change on 'Patti', 'Would' and 'Put'
e|-------------------------------------------------------------------------------|
B|-------------------------------------------------------------------------------|
G|-------------------------------------------------------------------------------|
D|--2--------5---------7---------7----------2--------5--------7-----------x------|
A|--2--------5---------7---------5----------2--------5--------7-----------x------|
E|--0-(x4)---3-(x4)----5-(x4)----5-(x4)-----0-(x4)---3-(x4)---5-(x12)-----x------|

[Chorus]
'Now I got you...' - hard to explain the timing but it's fairly simple :)
e|--0---------------------2--------------------|
B|--0----------4----------2----------2---------|
G|--1----------4----------2----------2---------|
D|--2----------4----------4----------2---------|
A|--2----------2-(x8)----4----------0-(x8)-----|
E|--0-(x8)----------------2-(x8)---------------|

(Timing isn't so straight-forward here, this part is the same as the next
part apart from not having the muted notes and if you look at the official
lyric video it literally tells you when to change the chords)
e|--0---------------------2-------------------------|
B|--0----------4----------2----------2--------------|
G|--1----------4----------2----------2--------------|
D|--2----------4----------4----------2--------------|
A|--2----------2-(x4)-----4----------0-(x6)---------|
E|--0-(x6)----------------2-(x6)--------------------|

(Lyric video shows you when to make the changes, play it loose)
e|--0------------------------------------------------------|
B|--0-------------------4----------------------------------|
G|--1-------------------4----------------------------------|
D|--2---------x-x-x-----4----------4-4-4-6-7-7-7-7---------|
A|--2---------x-x-x-----2-(x7)-----4-4-4-6-7-7-7-7---------|
E|--0-(x6)----x-x-x----------------2-2-2-4-5-5-5-5---------|

[Verse 2]
No guitar here really, but play each of these 'pairs'
a touch after Haley says '...my head...'
e|-----------------------------|
B|-----------------------------|
G|--4--------4---------4-------|
D|------6--------6--------7----|
A|-----------------------------|
E|-----------------------------|

[Chorus 2]
(x3)
e|--0---------------------2----------------------|
B|--0----------4----------2----------2-----------|
G|--1----------4----------2----------2-----------|
D|--2----------4----------4----------2-----------|
A|--2----------2-(x8)----4----------0-(x8)-------|
E|--0-(x8)----------------2-(x8)-----------------|

(x1)
e|--0---------------------2----------------------------|
B|--0----------4----------2----------2-----------------|
G|--1----------4----------2----------2-----------------|
D|--2----------4----------4----------2---------2v------|
A|--2----------2-(x8)----4----------0-(x4)-------------|
E|--0-(x8)----------------2-(x8)-----------------------|

[Bridge]
(Not sure what to call this part, but it's just the intro again)
e|-------------------------------------------------------------------------|
B|-------------------------------------------------------------------------|
G|--13-14-13-14-13-----13-13-13-14-13-14-13--9---9--9--9--11--11-9--9--9---|
D|--x--x--x--x--x------x--x--x--x--x--x--x---x---x--x--x--x---x--x--x--x---|
A|--11-12-11-12-11-----11-11-11-12-11-12-11--7---7--7--7--9---9--7--7--7---|
E|-------------------------------------------------------------------------|

e|-----------------------------------------------------------------------------------|
B|-----------------------------------------------------------------------------------|
G|--13-14-13-14-13-----13-13-13-14-13-14-13--16----13--13--13----14--14--14--14--14--|
D|--x--x--x--x--x------x--x--x--x--x--x--x---x-----x---x---x-----x---x---x---x---x---|
A|--11-12-11-12-11-----11-11-11-12-11-12-11--14----11--11--11----12--12--12--12--12--|
E|-----------------------------------------------------------------------------------|

[Breakdown/Alt-chorus]
(x1)
e|-------------------------------------------------------------------------------------------|
B|-------------------------------------------------------------------------------------------|
G|-----------------------------------------9-------16b-------11-------14---------------------|
D|--2--------9--------4--------7b----------x-------x---------x--------x----------------------|
A|--x--------x--------x--------x-----------7-(x8)--14b-(x8)--9-(x8)---12-(x8)----------------|
E|--0-(x8)---7-(x8)---2-(x8)---5b-(x8)-------------------------------------------------------|

(x3)
e|--0---------------------2------------------------|
B|--0----------4----------2----------2-------------|
G|--1----------4----------2----------2-------------|
D|--2----------4----------4----------2-------------|
A|--2----------2-(x8)-----4----------0-(x8)--------|
E|--0-(x8)----------------2-(x8)-------------------|

(x1)
e|--0---------------------2---------------------------|
B|--0----------4----------2----------2----------------|
G|--1----------4----------2----------2----------------|
D|--2----------4----------4----------2----------------|
A|--2----------2-(x8)-----4----------0-(x5)-----------|
E|--0-(x8)----------------2-(x8)----------------------|

[Outro]
(Literally just the intro riff again with some tiny changes for timing here and there.
Can forgive them using it again though because it's a mint riff)
e|------------------------------------------------------------------------------|
B|------------------------------------------------------------------------------|
G|--13-14-13-14-13-----13-13-13-14-13-14-13--9---9--9--9--11--11-9--9--9--------|
D|--x--x--x--x--x------x--x--x--x--x--x--x---x---x--x--x--x---x--x--x--x--------|
A|--11-12-11-12-11-----11-11-11-12-11-12-11--7---7--7--7--9---9--7--7--7--------|
E|------------------------------------------------------------------------------|

e|----------------------------------------------------------------------------|
B|----------------------------------------------------------------------------|
G|--13-14-13-14-13-----13-13-13-14-13-14-13--16----13--13--13----14-----------|
D|--x--x--x--x--x------x--x--x--x--x--x--x---x-----x---x---x-----x------------|
A|--11-12-11-12-11-----11-11-11-12-11-12-11--14----11--11--11----12-(x5)------|
E|----------------------------------------------------------------------------|

(x2)
e|------------------------------------------------------------------------------|
B|------------------------------------------------------------------------------|
G|--13-14-13-14-13-----13-13-13-14-13-14-13--9---9--9--9--11--11-9--9--9--------|
D|--x--x--x--x--x------x--x--x--x--x--x--x---x---x--x--x--x---x--x--x--x--------|
A|--11-12-11-12-11-----11-11-11-12-11-12-11--7---7--7--7--9---9--7--7--7--------|
E|------------------------------------------------------------------------------|

Who-oo-oh!

************************************

| x   Dead note
| h   Hammer-on
| p   Pull-off
| r   Release
| b   Bend

************************************

            
            
Suggest correction
Creating personal tab
Creating personal tab
You can edit any tab online and save it as your Personal.

You can edit, replace or remove any tab part or add personal notes – all changes will be seen only by you.

Personal tabs can be accessed anytime from any device, even offline.
Learn more »
Give kudos to tab author, rate the tab!
1 2 3 4 5
comments
print report bad tab
guest
You may want to rate the tab now too:
select rating
Wanna post a correction for this tab? Suggest correction