Oops, an error
Loading. Please wait.

School Fiction tab

91 views 1 this week
no commentswrite comment
1 2 3 4 5
1 last vote to show rating
add to favorites
×
Save as Personal and add changes to this tab that will be seen only by you. Learn more ›
×
You can save this tab as Personal to edit and correct it or add notes. All changes will be seen only by you. Learn more »
launch autoscroll
font size
0
reset
how to read this tab
guitar tuner
edit
Autoscroll
slow
fast
+/-
esc
set tempo
stop
First song off the first demo. Deceptive amount of riffs in this song.

e|---------1----------1---------------1----------1-------|
B|-------------------------------------------------------|
G|-----3----------3-------3-------3----------3-------3---|
D|-1-1---1----1-1---1---1---5-0-0---0----0-0---0---0---5-| x3
A|-------------------------------------------------------|
E|-------------------------------------------------------|
   * * * *    * * * *   * * * * * * *    * * * *   * * * 

e|---------1----------1---------------1---------------|
B|----------------------------------------------------|
G|-----3----------3-------3-------3----------3-3--3-3-|
D|-1-1---1----1-1---1---1---5-0-0---0----0-0---1--1-1-| x1
A|---------------------------------------------1--1-1-|
E|----------------------------------------------------|
   * * * * *  * * * * * * * * * * * * *  * * *  

e|----------------------------------------------|
B|----------------------------------------------|
G|-0-0-0-3-3-3-5-5--3-3-3-5-5-3-3---2-2-3-3-3-3-|
D|-5-5-5-5-5-5-5-5--5-5-5-5-5-5-5---5-5-5-5-5-5-| x3
A|-5-5-5-5-5-5-5-5--5-5-5-5-5-5-5---5-5-5-5-5-5-|
E|----------------------------------------------|

e|---------------------------------------------------|
B|---------------------------------------------------|
G|-0-0-0-3-3-3-5-5--5-5---3--3-3--5-5--3-3--2-2--3-3-|
D|-5-5-5-5-5-5-5-5--5-5---5--5-5--5-5--5-5--5-5--5-5-|
A|-5-5-5-5-5-5-5-5--5-5---5--5-5--5-5--5-5--5-5--5-5-|
E|---------------------------------------------------|

bass only

e|-----------------------------------------|
B|-11-(tremelo effect)---------------------|
G|---------------------10-(tremelo effect)-|
D|-----------------------------------------| x2
A|-----------------------------------------|
E|-----------------------------------------|

    e|-------1-------1-------|
    B|-----------------------|
GTR G|----3-------------3----|
 1  D|-1----------0----------| x4
    A|-----------------------|
    E|-----------------------|

    e|----------------------------------------------------------------|
    B|--------------------------------15-(TE)-16-(TE)-18-(TE)-20-(TE)-|
GTR G|-12-(TE)-14(TE)-15-(TE)-17-(TE)---------------------------------|
 2  D|----------------------------------------------------------------| x1
    A|----------------------------------------------------------------|
    E|----------------------------------------------------------------|

e|-----------------------------------------|
B|-11-(tremelo effect)---------------------|
G|---------------------10-(tremelo effect)-|
D|-----------------------------------------| x3
A|-----------------------------------------|
E|-----------------------------------------|

e|------------------------|
B|-11-(tremelo effect)-11-|
G|---------------------10-|
D|---------------------12-| x1
A|------------------------|
E|------------------------|

e|------------------------|
B|-11--11--11--11--11--11-|
G|-10--10--10--10--10--10-|
D|-8---8---8---12--12--12-| x3
A|------------------------|
E|------------------------|

e|------------------------|
B|-11--11--11--11----1111-|
G|-10--10--10--10----1010-|
D|-8---8---8---12----1212-| x1
A|------------------------|
E|------------------------|

e|-----------------------------------------------------------------------------|
B|-----------------------------------------------------------------------------|
G|-3-333333-5-555555-7-77777777777777-3-333333-5-555555-7-777777-5-5--3--3-3-3-|
D|-1-111111-3-333333-5-55555555555555-1-111111-3-333333-5-555555-5-5--5--5-5-5-|
A|-1-111111-3-333333-5-55555555555555-1-111111-3-333333-5-555555-5-5--5--5-5-5-|
E|-----------------------------------------------------------------------------|

e|------------------------------------|
B|------------------------------------|
G|-3-333333-5-555555-7-77777777777777-|
D|-1-111111-3-333333-5-55555555555555-| x2
A|-1-111111-3-333333-5-55555555555555-|
E|------------------------------------|

e|------------------------------------------------|
B|-------------------------------------8--8-8-8-8-|
G|-3--3-3-3-3/5--5-5-5-5--7--7-7-7-7-7-7--7-7-7-7-|
D|-1--1-1-1-1/3--3-3-3-3--5--5-5-5-5-5-5--5-5-5-5-| x3
A|-1--1-1-1-1/3--3-3-3-3--5--5-5-5-5-5-5--5-5-5-5-|
E|------------------------------------------------|

e|-------------------------------------------|
B|-------------------------------------------|
G|-3--3-3-3-3/5--5-5-5-5--5-5--3-3--2-2--3-3-|
D|-1--1-1-1-1/3--3-3-3-3--5-5--5-5--5-5--5-5-| x1
A|-1--1-1-1-1/3--3-3-3-3--5-5--5-5--5-5--5-5-|
E|-------------------------------------------|

e|---------1----------1---------------1----------1-------|
B|-------------------------------------------------------|
G|-----3----------3---------------3----------3-----------|
D|-1-1---1----1-1---1---------0-0---0----0-0---0---------| x2
A|-------------------------------------------------------|
E|-------------------------------------------------------|
   * * * *    * * * *   * * * * * * *    * * * *   * * * 

e|---------------------------------------------------|
B|-------------------------------------------------6-|
G|-3-3--3-3----3---3-3--3-3----3---3-3--3-3----3---3-|
D|-1-3--1-3--1---3-0-0--0-0--1---3-1-3--1-3--1---3-0-|
A|---------------------------------------------------|
E|---------------------------------------------------|
   * *  * *  * * * * *  * *  * * * * *  * *  * * * 

e|------------------------|
B|-11--11--11--11--11--11-|
G|-10--10--10--10--10--10-|
D|-8---8---8---12--12--12-| x3
A|------------------------|
E|------------------------|

e|------------------------|
B|-11--11--11--11----1111-|
G|-10--10--10--10----1010-|
D|-8---8---8---12----1212-| x1
A|------------------------|
E|------------------------|

e|-----------------------------------------------------------------------------|
B|-----------------------------------------------------------------------------|
G|-3-333333-5-555555-7-77777777777777-3-333333-5-555555-7-777777-5-5--3--3-3-3-|
D|-1-111111-3-333333-5-55555555555555-1-111111-3-333333-5-555555-5-5--5--5-5-5-|
A|-1-111111-3-333333-5-55555555555555-1-111111-3-333333-5-555555-5-5--5--5-5-5-|
E|-----------------------------------------------------------------------------|

e|------------------------------------|
B|------------------------------------|
G|-3-333333-5-555555-7-77777777777777-|
D|-1-111111-3-333333-5-55555555555555-| x2
A|-1-111111-3-333333-5-55555555555555-|
E|------------------------------------|

e|-------------------------------------------------------------------|
B|-------------------------------------------------------------------|
G|-3--3--3--3--3-3--5--5--5--5--5-5--7--7--7--7--7-7-7--7--7--7--7-7-|
D|-1--1--1--1--1-1--3--3--3--3--3-3--5--5--5--5--5-5-5--5--5--5--5-5-| x1
A|-1--1--1--1--1-1--3--3--3--3--3-3--5--5--5--5--5-5-5--5--5--5--5-5-|
E|-------------------------------------------------------------------|

    e|---------------------------------------------------|
    B|---------------------------------------------------|
GTR G|-3--3--3--3--3-3--5--5--5--5--5-5--7--7--7--7--7-7-|
 1  D|-1--1--1--1--1-1--3--3--3--3--3-3--5--5--5--5--5-5-| x1
    A|-1--1--1--1--1-1--3--3--3--3--3-3--5--5--5--5--5-5-|
    E|---------------------------------------------------|

    e|----------------------------------------------|
    B|----------------------------------------------|
GTR G|-15-------14-------12-------10-------12-14----|
 2  D|----15-15----15-15----15-15----15-15-------15-| x3
    A|----------------------------------------------|
    E|----------------------------------------------|
          *  *     *  *     *  *     *  *

    e|-----------------|
    B|-----------------|
GTR G|-7--7--7--7--7-7-|
 1  D|-5--5--5--5--5-5-| x1
    A|-5--5--5--5--5-5-|
    E|-----------------|

    e|----------------------------------------------|
    B|----------------------------------------------|
GTR G|-17-------14-------12-------10-------12-14----|
 2  D|----15-15----15-15----15-15----15-15-------15-| x1
    A|----------------------------------------------|
    E|----------------------------------------------|
          *  *     *  *     *  *     *  *

e|-1----6------------6----------6-----3----3-----|
B|-4------6------------6----------6---3------3---|
G|-3--------3---5--------3-7--------3-3--------3-|
D|-1------------3----------5----------5----------| x1
A|-----------------------------------------------|
E|-----------------------------------------------|

    e|-1----6------------6----------6-----3----3-----|
    B|-4------6------------6----------6---3------3---|
GTR G|-3--------3---5--------3-7--------3-3--------3-|
 1  D|-1------------3----------5----------5----------| x1
    A|-----------------------------------------------|
    E|-----------------------------------------------|

    e|-----------------------------------------------|
    B|------4-3----------4-3--------4-3---/8---8-----|
GTR G|----------3-3----------3-3--------3--------7---|
 2  D|---------------------------------------------5-| x1
    A|-----------------------------------------------|
    E|-----------------------------------------------|

    e|------------------------------------------------------------|
    B|------------------------------------------------------------|
GTR G|-3-33333333333333-5-55555555555555-7-7777777777777777777777-|
 1  D|-1-11111111111111-3-33333333333333-5-5555555555555555555555-| x1
    A|-1-11111111111111-3-33333333333333-5-5555555555555555555555-|
    E|------------------------------------------------------------|

    e|---3h5-3h5-3h5-3h5--5h6-5h6-5h6-5h6-6h8-6h8-6h8-6h8-6/8-8/10-10/11-11/13-13\11-11/10-10\8-8\6-6-|
    B|------------------------------------------------------------------------------------------------|
GTR G|------------------------------------------------------------------------------------------------|
 2  D|------------------------------------------------------------------------------------------------|
    A|------------------------------------------------------------------------------------------------|
    E|------------------------------------------------------------------------------------------------|

    e|-------------------------------------------------------------------|
    B|-------------------------------------------------------------------|
GTR G|-3--3--3--3--3-3--5--5--5--5--5-5--7--7--7--7--7-7-7--7--7--7--7-7-|
 1  D|-1--1--1--1--1-1--3--3--3--3--3-3--5--5--5--5--5-5-5--5--5--5--5-5-|
    A|-1--1--1--1--1-1--3--3--3--3--3-3--5--5--5--5--5-5-5--5--5--5--5-5-|
    E|-------------------------------------------------------------------|

    e|---3h5-3h5-3h5-3h5--5h6-5h6-5h6-5h6-6h8-6h8-6h8-6h8-6h8-6h8-8h10-10h11-11h13-18-18-18-18-|
    B|-----------------------------------------------------------------------------------------|
GTR G|-----------------------------------------------------------------------------------------|
 2  D|-----------------------------------------------------------------------------------------|
    A|-----------------------------------------------------------------------------------------|
    E|-----------------------------------------------------------------------------------------|

e|------------------------------------|
B|------------------------------------|
G|-3-333333-5-555555-7-77777777777777-|
D|-1-111111-3-333333-5-55555555555555-| x2
A|-1-111111-3-333333-5-55555555555555-|
E|------------------------------------|

    e|------------------------------------|
    B|------------------------------------|
GTR G|-3-333333-5-555555-7-77777777777777-|
 1  D|-1-111111-3-333333-5-55555555555555-| x2
    A|-1-111111-3-333333-5-55555555555555-|
    E|------------------------------------|

    e|-----------------------------------------|
    B|-4-4-4-4-4-3---4-3---4-4-4-4-4-8-8-8-8-8-|
GTR G|-------------3-----3---------------------|
 2  D|-----------------------------------------|
    A|-----------------------------------------|
    E|-----------------------------------------|

    e|------------------------------------|
    B|------------------------------------|
GTR G|-3-333333-5-555555-7-77777777777777-|
 1  D|-1-111111-3-333333-5-55555555555555-| x2
    A|-1-111111-3-333333-5-55555555555555-|
    E|------------------------------------|

    e|-----------------------------------|
    B|-4-4-4-3---4-3---4-3---8-8-8-6-6-6-|
GTR G|---------3-----3-----3-------------|
 2  D|-----------------------------------|
    A|-----------------------------------|
    E|-----------------------------------|

e|-----------------------------------------------------------------------------|
B|-----------------------------------------------------------------------------|
G|-3-333333-5-555555-7-77777777777777-3-333333-5-555555-7-777777-5-5--3--3-3-3-|
D|-1-111111-3-333333-5-55555555555555-1-111111-3-333333-5-555555-5-5--5--5-5-5-|
A|-1-111111-3-333333-5-55555555555555-1-111111-3-333333-5-555555-5-5--5--5-5-5-|
E|-----------------------------------------------------------------------------|

e|------------------------------------|
B|------------------------------------|
G|-3-333333-5-555555-7-77777777777777-|
D|-1-111111-3-333333-5-55555555555555-| x2
A|-1-111111-3-333333-5-55555555555555-|
E|------------------------------------|

e|----------------------------------------------|
B|----------------------------------------------|
G|-0-0-0-3-3-3-5-5--3-3-3-5-5-3-3---2-2-3-3-3-3-|
D|-5-5-5-5-5-5-5-5--5-5-5-5-5-5-5---5-5-5-5-5-5-| x3
A|-5-5-5-5-5-5-5-5--5-5-5-5-5-5-5---5-5-5-5-5-5-|
E|----------------------------------------------|

e|---------------------------------------------------|
B|---------------------------------------------------|
G|-0-0-0-3-3-3-5-5--5-5---3--3-3--5-5--3-3--2-2--3-3-|
D|-5-5-5-5-5-5-5-5--5-5---5--5-5--5-5--5-5--5-5--5-5-| x1
A|-5-5-5-5-5-5-5-5--5-5---5--5-5--5-5--5-5--5-5--5-5-|
E|---------------------------------------------------|

            
            
Suggest correction
Creating personal tab
Creating personal tab
You can edit any tab online and save it as your Personal.

You can edit, replace or remove any tab part or add personal notes – all changes will be seen only by you.

Personal tabs can be accessed anytime from any device, even offline.
Learn more »
Give kudos to tab author, rate the tab!
1 2 3 4 5
comments
print report bad tab
guest
You may want to rate the tab now too:
select rating
Wanna post a correction for this tab? Suggest correction