Oops, an error
Loading. Please wait.

«Drug Thing» tab

25 views 1 this week
no commentswrite comment
1 2 3 4 5
1 last vote to show rating
add to favorites
×
Save as Personal and add changes to this tab that will be seen only by you. Learn more ›
×
You can save this tab as Personal to edit and correct it or add notes. All changes will be seen only by you. Learn more »
launch autoscroll
font size
0
reset
how to read this tab
guitar tuner
edit
Autoscroll
slow
fast
+/-
esc
set tempo
stop
----------------------------------------------------------------- 
                  «Drug Thing» - Motorpsycho
----------------------------------------------------------------- 

Album: Blissard
Year: 1996
Tuning: EBEbAbBeb


[0:00] Intro pt 1

Guitar right: 

eb|-----------12------------12--12---|
B |-------12----12------12--------12-|
Ab|---12----12------12----12---------|
Eb|-12--12--------12--12-------------| x4
B |----------------------------------|
E |----------------------------------|


[0:11] Intro pt 2

Guitar right:

eb|----------------------------------0-----------0--------------|
B |---7-7----7-9--------------7---------------------------------|
Ab|----------------7----7---7--7--------------------------------|
Eb|-8------8-----8----8---8-------7-------7--8-------7h8p7------| x3
B |--------------------------------------------------------9-7--|
E |-------------------------------------------------------------|

eb|----------------------------------0---------0----------------|
B |---7-7----7-9--------------7---------------------------------|
Ab|----------------7----7---7--7--------------------------------|
Eb|-8------8-----8----8---8-------7-------7--8----10------------|
B |-------------------------------------------------------------|
E |-------------------------------------------------------------|

Guitar left: 

eb|--0---0-----0-0-0--0-------0---0----0---0--------------------|
B |--0---0-----0-0-0--0-------0---0----0---0--------------------|
Ab|--0---0-----0-0-0--0-------0---0----0---0--------------------|
Eb|--8-7/8-----8-8-7--5-------5/7------7/8----------------------| x4
B |--0---0-----0-0-0--0-------0-0------0-0----------------------|
E |-------------------------------------------------------------|


[0:30] Verse 1

Guitar right: 

eb|------------------|------------------------------------------------------|
B |--x-x-x-x-x-x-x-x-|------------------------------------------------------|
Ab|--x-x-x-x-x-x-x-x-|------------------------------------------------------|
Eb|--x-x-x-x-x-x-x-x-|------------------------------------------------------| x3
B |--x-x-x-x-x-x-x-x-|------------------------------------------------------|
E |------------------|-10b(11)r(10)-10b(11)r(10)-10b(11)r(10)-10b(11)r(10)--|

Guitar left:

eb|------------------|-------------------|
B |------------------|-x---x-x-x-x-x-x-x-|
Ab|--7-7-7-7-7-7-7-7-|-x---x-x-x-x-x-x-x-|
Eb|------------------|-x---x-x-x-x-x-x-x-| x3
B |--4-4-4-4-4-4-4-4-|-x---x-x-x-x-x-x-x-|
E |------------------|-------------------|

Both guitars:

eb|----------------------------------|
B |----------------------------------|
Ab|-9/11--11--12-11-9-9--/-11-11-11--|
Eb|-0-0---0---0--0--0-0----0--0--0---|
B |----------------------------------|
E |----------------------------------|


Guitar right:

eb|------------------|------------------------------------------------------|
B |--x-x-x-x-x-x-x-x-|------------------------------------------------------|
Ab|--x-x-x-x-x-x-x-x-|------------------------------------------------------|
Eb|--x-x-x-x-x-x-x-x-|------------------------------------------------------| x3
B |--x-x-x-x-x-x-x-x-|------------------------------------------------------|
E |------------------|-10b(11)r(10)-10b(11)r(10)-10b(11)r(10)-10b(11)r(10)--|

Guitar left: 

eb|------------------|-------------------|
B |------------------|-x---x-x-x-x-x-x-x-|
Ab|--7-7-7-7-7-7-7-7-|-x---x-x-x-x-x-x-x-|
Eb|------------------|-x---x-x-x-x-x-x-x-| x3
B |--4-4-4-4-4-4-4-4-|-x---x-x-x-x-x-x-x-|
E |------------------|-------------------|


Both guitars:

eb|---------------------------------------|
B |---------------------------------------|
Ab|-9/11--11--12-11-9/12--12/14-12-11-/14-|
Eb|-0-0---0---0--0--0-0----0--0-0--0---0--|
B |---------------------------------------|
E |---------------------------------------|

[0:50] Bridge


"..If it makes you content"

Guitar left:


eb|----------------------|
B |----------------------|
Ab|--0-0-0-0-2----2-3----|
Eb|--0-0-0-0-0----0-0----|
B |----------------------|
E |----------------------|
E |----------------------|
 
Guitar right:

eb|------12--------------|
B |-----12---------------|
Ab|----12----------------|
Eb|---12-----------------|
B |----------------------|
E |----------------------|

"it’s something you will never tame"

Guitar left:

eb|----------------------|
B |----------------------|
Ab|--0--2--3--5--7-8-5---|
Eb|--0--0--0--0--0-0-0---|
B |----------------------|
E |----------------------|
E |----------------------|

Guitar right:

eb|------12--------------|
B |-----12---------------|
Ab|----12----------------|
Eb|---12-----------------|
B |----------------------|
E |----------------------|


"or even understand what meant"

eb|----------------------|
B |----------------------|
Ab|--0-0-0-0-2----2-3----|
Eb|--0-0-0-0-0----0-0----|
B |----------------------|
E |----------------------|
E |----------------------|


[1:10] Bridge 2


Guitar right:

eb|------12--12----------12------------------12--12---|
B |----12--12----------12----12------------12--12-----|
Ab|--12--------------12----12------------12-----------|
Eb|---------------------------------------------------|
B |---------------------------------------------------|
E |---------------------------------------------------|

Guitar left:

eb|------------------------------------|
B |------------------------------------|
Ab|--0-3p0-3p0-7p0-0-3p0-3p0-7--7-3p0--|
Eb|------------------------------------| x3
B |------------------------------------|
E |------------------------------------|

Both guitars:

eb|----------------------------------|
B |----------------------------------|
Ab|-9/11--11--12-11-9-9--/-11-11-11--|
Eb|-0-0---0---0--0--0-0----0--0--0---|
B |----------------------------------|
E |----------------------------------|

Guitar right:

eb|------12--12----------12------------------12--12---|
B |----12--12----------12----12------------12--12-----|
Ab|--12--------------12----12------------12-----------|
Eb|---------------------------------------------------|
B |---------------------------------------------------|
E |---------------------------------------------------|

Guitar left:

eb|------------------------------------|
B |------------------------------------|
Ab|--0-3p0-3p0-7p0-0-3p0-3p0-7--7-3p0--|
Eb|------------------------------------| x3
B |------------------------------------|
E |------------------------------------|

Both guitars:

eb|----------------------------------|
B |----------------------------------|
Ab|-9/11--11--12-11-9-9--/-11-11-11--|
Eb|-0-0---0---0--0--0-0----0--0--0---|
B |----------------------------------|
E |----------------------------------|

[1:30] Chorus 1

Guitar right:

eb|----------------------------------0-----------0--------------|
B |---7-7----7-9--------------7---------------------------------|
Ab|----------------7----7---7--7--------------------------------|
Eb|-8------8-----8----8---8-------7-------7--8-------7h8p7------| x3
B |--------------------------------------------------------9-7--|
E |-------------------------------------------------------------|

eb|----------------------------------0---------0----------------|
B |---7-7----7-9--------------7---------------------------------|
Ab|----------------7----7---7--7--------------------------------|
Eb|-8------8-----8----8---8-------7-------7--8----10------------|
B |-------------------------------------------------------------|
E |-------------------------------------------------------------|

Guitar left: 

eb|--0---0-----0-0-0--0-------0---0----0---0--------------------|
B |--0---0-----0-0-0--0-------0---0----0---0--------------------|
Ab|--0---0-----0-0-0--0-------0---0----0---0--------------------|
Eb|--8-7/8-----8-8-7--5-------5/7------7/8----------------------| x4
B |--0---0-----0-0-0--0-------0-0------0-0----------------------|
E |-------------------------------------------------------------|

[1:50] Break 1

Guitar left: 

eb|------------------------------------|
B |------------------------------------|
Ab|-2-2-2-2-2-2-3------3-3-3-3-3-3-3---|
Eb|-0-0-0-0-0-0-0------0-0-0-0-0-0-0---| x2
B |------------------------------------|
E |------------------------------------|

This lick 6 times right before the solo

eb|-------|
B |-------|
Ab|-3p2---|
Eb|----3--|
B |-------|
E |-------|


Guitar right: 

eb|------------------------------------|
B |------------------------------------|
Ab|------------------------------------|
Eb|------------------------------------|
B |-7-7-7-7-7-7-9------9-9-9-9-9-9-9---| x2
E |-0-0-0-0-0-0-0------0-0-0-0-0-0-0---|

[2:10]

Solo 1:

eb|----------------------------------------------------------|
B |----------------------------------------------------------|
Ab|-19\-7-8-7-/-10------12p10h12----12p10h12-----12-10----10-|
Eb|-----------------------------12----------12---------12----|
B |----------------------------------------------------------|
E |----------------------------------------------------------|

eb|----------------------------------------------------------|
B |-------------------------------------------------------11-|
Ab|---7-8-7-/-10--10----12p10h12----12p10h12-----12-10-12----|
Eb|-----------------12----------12----------12---------------|
B |----------------------------------------------------------|
E |----------------------------------------------------------|

eb|------------------------------------------------------------------|
B |-12---11-12--11-12--11-12--11-11h12p11-11--11h12p11-11--11h12p11--|
Ab|------------------------------------------------------------------|
Eb|------------------------------------------------------------------|
B |------------------------------------------------------------------|
E |------------------------------------------------------------------|

eb|------------------------------12----12/15-12-15-15b(17)---15b(17)-|
B |-11-12---11-12-11-12/14-12-14----14--------------------15---------|
Ab|------------------------------------------------------------------|
Eb|------------------------------------------------------------------|
B |------------------------------------------------------------------|
E |------------------------------------------------------------------|

eb|-17/15--12-----12-------------------------------------------------|
B |-----------12-------12--9--11--7----7/9~--------------------------|
Ab|------------------------------------------------------------------|
Eb|------------------------------------------------------------------|
B |------------------------------------------------------------------|
E |------------------------------------------------------------------|

Solo backing

eb|------------------------------------------------|
B |------------------------------------------------|
Ab|------------------------------------------------|
Eb|------------------------------------------------|
B |------------4-----5-4-5-4---5-4-5-4----4h54---4-|
E |---4---4------------------------------------7---|

eb|------------------------------------------------|
B |------------------------------------------------|
Ab|------------------------------------------------|
Eb|------------------------------------------------|
B |------------4-----5-4-5-4---5-4-5-4----4h54---4-|
E |---4---4------------------------------------7---|

eb|------------------------------------------------|
B |------------------------------------------------|
Ab|------------------------------------------------|
Eb|---5---5----7-----------------------------------|
B |------------------5-4-5-4---5-4-5-4----4h54---4-|
E |---4---4----6-------------------------------7---|

eb|------------------------------------------------|
B |------------------------------------------------|
Ab|------------------------------------------------|
Eb|------------------------------------------------|
B |------------4-------------------------0---------|
E |---4---4---------0-0--2-2--4-4--6-6-----6-4-2-4-|

[02:31] Break 2

Guitar left: 

eb|----------------------------------|
B |-12--11-9-11--9---7---4---7-------|
Ab|----------------------------------|
Eb|----------------------------------| repeat till 03:50
B |----------------------------------|
E |----------------------------------|

Guitar right: 

eb|----------------------------------|
B |----------------------------------|
Ab|----------------------------------|
Eb|----------------------------------| repeat till end song
B |-12--11-9-11--9---7---4---7-------|
E |----------------------------------|

[02:50] Chorus 2

Guitar middle: 

eb|---------------------------------/7-7-7-7-7----------8---8-10-8---|
B |---7-7----7-9--------------7-----------------9---/9----9--------9-|
Ab|----------------7----7---7--7-------------------------------------|
Eb|-8------8-----8----8---8------------------------------------------| x4
B |------------------------------------------------------------------|
E |------------------------------------------------------------------|


[03:10] Solo 2


eb|-----------12-----15----13-12-12h13p12-----12--------------------------------|
B |------12-------------------------------14------------12-----12---------------|
Ab|--12----12------------------------------------12--12-----12------------------|
Eb|-----------------------------------------------------------------------------|
B |-----------------------------------------------------------------------------|
E |-----------------------------------------------------------------------------|

eb|-12-12-12/15-15-15-15/19-19-19-19\15-15/17-17\12-- -12/15-15/10--10-10--10/8-|
B |-----------------------------------------------------------------------------|
Ab|-----------------------------------------------------------------------------|
Eb|-----------------------------------------------------------------------------|
B |-----------------------------------------------------------------------------|
E |-----------------------------------------------------------------------------|

eb|-7-8-7-8/12---12--12/10-8-7-8-7----/7----------------------------------------|
B |--------------------------------9-----7-9---/11h12p11----11h12p11-11h12/14---|
Ab|-----------------------------------------------------12----------------------|
Eb|-----------------------------------------------------------------------------|
B |-----------------------------------------------------------------------------|
E |-----------------------------------------------------------------------------|

eb|----------12-----------------12-12-12-12-12-12-15-15-15-15-15-15-|
B |-11/12-14----14-12-11/12-14--------------------------------------|
Ab|-----------------------------------------------------------------|
Eb|-----------------------------------------------------------------|
B |-----------------------------------------------------------------|
E |-----------------------------------------------------------------|

eb|-17-17-17---15/17-17---17-17-15---15-15---15-15-/-12---8-12-8-12-8-10-12-----|
B |-----------------------------------------------------------------------------|
Ab|-----------------------------------------------------------------------------|
Eb|-----------------------------------------------------------------------------|
B |-----------------------------------------------------------------------------|
E |-----------------------------------------------------------------------------|

eb|-12--/-15-15-15-15-12---12/-15-15-15-15-12---------------------------------------|
B |--------------------------------------------12--14--12--11--12-11-12-12-11-12-12-|
Ab|---------------------------------------------------------------------------------|
Eb|---------------------------------------------------------------------------------|
B |---------------------------------------------------------------------------------|
E |---------------------------------------------------------------------------------|

eb|-----------------------15----15----15----15----15----15----15---17--17b(19)17-15---17-|
B |-12/14--14--14--14/16------16-----16----16----16----16----16--------------------------|
Ab|--------------------------------------------------------------------------------------|
Eb|--------------------------------------------------------------------------------------|
B |--------------------------------------------------------------------------------------|
E |--------------------------------------------------------------------------------------|

                                                            [start Chorus 3]
eb|-17b(19)17--15---17---15-\-12-/-15-\-10-\-8--7h8---------------------------|
B |-------------------------------------------------9--7/-9----11----12----14-|
Ab|---------------------------------------------------------------------------|
Eb|---------------------------------------------------------------------------|
B |---------------------------------------------------------------------------|
E |---------------------------------------------------------------------------|

eb|-12-----15------12--12-12-12\8--7-----/7-----------------------------------12---------|
B |----------------------------------9-7-----9---7---9---7---9----11----12--------11--12-|
Ab|--------------------------------------------------------------------------------------|
Eb|--------------------------------------------------------------------------------------|
B |--------------------------------------------------------------------------------------|
E |--------------------------------------------------------------------------------------|

[03:50] chorus 3


Guitar Right: 

eb|---------------------------------/7-7-7-7-7----------8---8-10-8---|
B |---7-7----7-9--------------7-----------------9---/9----9--------9-|
Ab|----------------7----7---7--7-------------------------------------|
Eb|-8------8-----8----8---8------------------------------------------|
B |------------------------------------------------------------------|
E |------------------------------------------------------------------|

Guitar Left

eb|----------------------------------|
B |----------------------------------|
Ab|----------------------------------|
Eb|----------------------------------|
B |-12--11-9-11--9---7---4---7-------|
E |----------------------------------|


[04:10] Outro

Guitar Left: 

eb|----12----12----|
B |---12----12-----|
Ab|--12----12------|
Eb|----------------| repeat till end
B |----------------|
E |----------------|


Guitar Right: 

eb|----------------|
B |---12-----------|
Ab|----------------|
Eb|----------------| repeat till end
B |---12-----------|
E |----------------|


| /  slide up
| \  slide down
| b  bend
| r  release
| h  hammer-on
| p  pull-off
| +  harmonic
| x  Mute note
Suggest correction
Creating personal tab
Creating personal tab
You can edit any tab online and save it as your Personal.

You can edit, replace or remove any tab part or add personal notes – all changes will be seen only by you.

Personal tabs can be accessed anytime from any device, even offline.
Learn more »
Give kudos to tab author, rate the tab!
1 2 3 4 5
comments
print report bad tab
guest
You may want to rate the tab now too:
select rating
Wanna post a correction for this tab? Suggest correction