Oops, an error
Loading. Please wait.

All Ive Ever Known tab

67 views 12 this week
1 commentread comment
1 2 3 4 5
2 more votes to show rating
add to favorites
×
Save as Personal and add changes to this tab that will be seen only by you. Learn more ›
×
You can save this tab as Personal to edit and correct it or add notes. All changes will be seen only by you. Learn more »
launch autoscroll
font size
0
reset
how to read this tab
guitar tuner
edit
Autoscroll
slow
fast
+/-
esc
set tempo
stop
All I've Ever Known
Written by Anaïs Mitchell
From the musical Hadestown

Tuning: Standard

Capo 4

Intro:
{
e |-------3-------3-------3------3--|
B |-------3-------3-------3------3--|
G |---------------------------------|
D |----0-------0-------0-------0----|
A |-3--------2----------------------|
E |-------------------2--------3----|} X2
 
Verse:  
{
e |-------3-------3-------3------3--|
B |-------3-------3-------3------3--|
G |---------------------------------|
D |----0-------0-------0-------0----|
A |-3--------2----------------------|
E |-------------------2--------3----|} X4
 
I was alone so long
I didn’t even know that I was lonely
Out in the cold so long
I didn’t even know that I was cold

Bridge:
 
e |-------3-------3-------3------3--|
B |-------3-------3-------3------3--|
G |---------------------------------|
D |----0-------0-------0-------0----|
A |-3--------3----------------------|
E |-------------------2--------2----|
 
e |-------3-------3----|
B |-------3-------3----|
G |--------------------|
D |----0-------0-------|
A |-3--------3---------|
E |------------------2-|
 
Turn my collar to the wind
This is how it’s always been

Chorus: 
{
e |-------3-------3-------3------3--|
B |-------3-------3-------3------3--|
G |---------------------------------|
D |----0-------0-------0-------0----|
A |-3--------2----------------------|
E |-------------------2--------3----|} X4
 
e |-------3----|
B |-------3----|
G |------------|
D |----0-------|
A |-3--------2-|
E |------------|
 
 
All I’ve ever known is how to hold my own
All I’ve ever known is how to hold my own
But now I want to hold you too
 
Instrumental:
{
e |-------3-------3-------3------3--|
B |-------3-------3-------3------3--|
G |---------------------------------|
D |----0-------0-------0-------0----|
A |-3--------2----------------------|
E |-------------------2--------3----|} X3
 
e |-------3-------3-|
B |-------3-------3-|
G |-----------------|
D |----0-------0----|
A |-3--------2------|
E |-----------------|
 
Verse:
{
e |-------3-------3-------3------3--|
B |-------3-------3-------3------3--|
G |----------------------0------0---|
D |----0-------0-----3-------3------|
A |-3--------2----------------------|
E |---------------------------------|
 
e |-------3-------3-------3------3--|
B |-------3-------3-------3------3--|
G |---------------------------------|
D |----0-------0-------0-------0----|
A |-3--------2----------------------|
E |-------------------2--------3----|} X2
 
e |-------3-------3-------3------3--|
B |-------3-------3-------3------3--|
G |---------------------------------|
D |----0-------0-------0-------0----|
A |-3--------2----------------------|
E |-------------------2--------3----|
 
You take me in your arms
And suddenly there’s sunlight all around
Everything bright and warm and shining like it never did before

Bridge:
e |-------3-------3-------3------3--|
B |-------3-------3-------3------3--|
G |---------------------------------|
D |----0-------0-------0-------0----|
A |-3--------3----------------------|
E |-------------------2--------2----|
 
e |-------3-------3----|
B |-------3-------3----|
G |--------------------|
D |----0-------0-------|
A |-3--------3---------|
E |------------------2-|
 
And for a moment I forget
Just how dark and cold it gets

Chorus:
{
e |-------3-------3-------3------3--|
B |-------3-------3-------3------3--|
G |---------------------------------|
D |----0-------0-------0-------0----|
A |-3--------2----------------------|
E |-------------------2--------3----|} X4
 
e |-------3----|
B |-------3----|
G |------------|
D |----0-------|
A |-3--------2-|
E |------------|
 
All I’ve ever known is how to hold my own
All I’ve ever known is how to hold my own
But now I want hold you
 
Verse: 
{
e |-------3-------3-------3------3--|
B |-------3-------3-------3------3--|
G |----0-------0--------------------|
D |-3-------3----------0-------0----|
A |---------------------------------|
E |-------------------2--------3----|} X3
 
e |-------3-------3-|
B |-------3-------3-|
G |----0-------0----|
D |-3-------3-------|
A |-----------------|
E |-----------------|
 
{
e |-------3-------3-------3------3--|
B |-------3-------3-------3------3--|
G |---------------------------------|
D |----0-------0-------0-------0----|
A |-3--------2----------------------|
E |-------------------2--------3----|} X2

Now I want to hold you, hold you close
I don’t want to ever have to let you go
Now I want to hold you, hold you tight
I don’t want to go back to the lonely life
 
Verse: 
{
e |-------3-------3-------3------3--|
B |-------3-------3-------3------3--|
G |----0-------0--------------------|
D |-3-------3----------0-------0----|
A |---------------------------------|
E |-------------------2--------3----|} X7
 
e |-------3-------3-------3--------3-|
B |-------3-------3-------3--------3-|
G |----0-------0-------------------0-|
D |-3-------3----------0-----------0-|
A |--------------------------------0-|
E |-------------------2--------2---3-|
 
Say that you’ll hold me forever
Say that the wind won’t change on us
Say that we’ll stay with each other
It’ll always be like this
I’m gonna hold you forever
The wind will never change on us
Long as we stay with each other
And it will always be like this
Suggest correction
Creating personal tab
Creating personal tab
You can edit any tab online and save it as your Personal.

You can edit, replace or remove any tab part or add personal notes – all changes will be seen only by you.

Personal tabs can be accessed anytime from any device, even offline.
Learn more »
Give kudos to tab author, rate the tab!
1 2 3 4 5
comments
print report bad tab
1 comment total.
0 reply
jansfella 209 Jun 06, 2017 10:26 PM

Thanks for this!

guest
You may want to rate the tab now too:
select rating
Wanna post a correction for this tab? Suggest correction