Oops, an error
Loading. Please wait.

Päivänsäde Ja Menninkäinen bass

118 views 6 this week
no commentswrite comment
1 2 3 4 5
3 more votes to show rating
add to favorites
×
Save as Personal and add changes to this tab that will be seen only by you. Learn more ›
×
You can save this tab as Personal to edit and correct it or add notes. All changes will be seen only by you. Learn more »
launch autoscroll
font size
0
reset
guitar tuner
edit
Autoscroll
slow
fast
+/-
esc
set tempo
stop
About this tab version
Bass version (solo) finnish with lyrics. Was this info helpful? Yes No
My very first tabs. Didn't find this finnish song for Bass. You can alter it to
start from different pitch, I liked this one.

G|---------------------------------------------------------------------------|
D|--------------0--0---------------------------0--0--------------------------|
A|--3--3--2--0---------3--2--------3--3--2--0--------3--2--------------------|
E|---------------------------------------------------------------------------|
   Au-rin-ko kun päät-ti ret-ken  Sis-kois-taan jäi jäl-keen het-ken
   
G|---------------------------------------------------------------------------|
D|---------------2-------------------3--3--2--3--2---------------------------|
A|--3--3--2--3------2----0---------------------------3--2--0-----------------|
E|---------------------------------------------------------------------------|
   Päi-vän sä-de vii-mei-nen         Hä-mä-rä  jo met-sään hii-pi

G|---------------------------------------------------------------------------|
D|--3--3--2--3--2----------------0--0--0--0--0--2--2--0-------0--------------|
A|------------------3--2--0------------------------------3-------------------|
E|---------------------------------------------------------------------------|
    Päi-vän sä-de kul-ta-sii-pi  Juu-ri ai-koi len-tää ees-tä   sen.

G|-----0--0------------------------------------------------------------------|
D|-----------2--0--------0--2--3--3-0----------------------------------------|
A|-----------------3--3----------------3---2---------------------------------|
E|--3------------------------------------------------------------------------|
   Kun men-nin-käi-sen pie-nen nä-ki vas-taan tu-le-van;

G|---------------------------------------------------------------------------|
D|-----2--2--2--2--0-----------0---------------------------------------------|
A|--------------------3--2--3------------------------------------------------|
E|--3------------------------------------------------------------------------|
   Se juu-ri o-li nous-sut luo-las-taan

G|-----------------0--0-----0--2--2-----2--5---------------------------------|
D|--0--2--2-----2--------2-----------3---------------------------------------|
A|-----------3---------------------------------------------------------------|
E|---------------------------------------------------------------------------|
   Kas Men-nin-käi-nen en-nen päi-vän-las-kua ei voi

G|--2--0--0------------------------------------------------------------------|
D|-----------2--------0-----------0--2-2-2-----------------------------------|
A|--------------3--3-----3--2--3---------------------------------------------|
E|---------------------------------------------------------------------------|
   Mil-loin-kaan ol-la pääl-lä maan

And then repeat 2 times this same and here are the lyrics

[FIRST REPEAT]
Katselivat toisiansa
menninkäinen rinnassansa
tunsi kummaa leiskuntaa.
Sanoi: "Poltat silmiäni,
mutten ole eläissäni
nähnyt mitään yhtä ihanaa!

Ei haittaa vaikka loisteesi mun sokeaksi saa
on pimeässä hyvä asustaa.
Käy kanssani, niin kotiluolaan näytän sulle tien
ja sinut armaakseni vien!"

[SECOND REPEAT]
Mut säde vastas: "Peikko kulta,
pimeys vie hengen multa,
enkä toivo kuolemaa.

Pois mun täytyy heti mennä,
ellen kohta valoon lennä
niin en hetkeäkään elää saa!"

Niin lähti kaunis päivänsäde, mutta vieläkin
kun menninkäinen öisin tallustaa,
hän miettii miksi toinen täällä valon lapsi on
ja toinen yötä rakastaa.

            
            
Suggest correction
Creating personal tab
Creating personal tab
You can edit any tab online and save it as your Personal.

You can edit, replace or remove any tab part or add personal notes – all changes will be seen only by you.

Personal tabs can be accessed anytime from any device, even offline.
Learn more »
Give kudos to tab author, rate the tab!
1 2 3 4 5
comments
print report bad tab
guest
You may want to rate the tab now too:
select rating
Wanna post a correction for this tab? Suggest correction