Oops, an error
Loading. Please wait.

Aria tab

19 views 1 this week
no commentswrite comment
1 2 3 4 5
3 more votes to show rating
add to favorites
×
Save as Personal and add changes to this tab that will be seen only by you. Learn more ›
×
You can save this tab as Personal to edit and correct it or add notes. All changes will be seen only by you. Learn more »
launch autoscroll
font size
0
reset
how to read this tab
guitar tuner
edit
Autoscroll
slow
fast
+/-
esc
set tempo
stop
About this tab version
Fingerstyle cover of Aria by Allevi. Was this info helpful? Yes No
Tabber: Mark D. Caribé
Tempo = 150
Steel Guitar

e|-----------3-----3----|-----------3-----3----|-----------3-----3L---|--3----|
B|-----------3-----3----|-----------3-----3----|-----------3-----3L---|--3----|
G|--------0-----0-------|--------2-----2-------|--------4-----4-------|-------|
D|----------------------|--0-------------------|----------------------|-------|
A|--3-------------------|----------------------|----------------------|-------|
E|----------------------|----------------------|--0L----0L-0L-0L-0L---|--0----|

e|-----------3-----3----|-----------3-----3----|-----------3-----3L---|--3----|
B|-----------3-----3----|-----------3-----3----|-----------3-----3L---|--3----|
G|--------0-----0-------|--------2-----2-------|--------4-----4-------|-------|
D|----------------------|--0-------------------|----------------------|-------|
A|--3-------------------|----------------------|----------------------|-------|
E|----------------------|----------------------|--0L----0L-0L-0L-0L---|--0----|

e|-----------3-----3----|-----------3-----3----|-----------3-----3----|
B|-----------3-----3----|-----------3-----3----|-----------3-----3----|
G|--------0-----0-------|--------2-----2-------|--------4-----4-------|
D|----------------------|--0-------------------|----------------------|
A|--3-------------------|----------------------|----------------------|
E|----------------------|----------------------|--0-------------------|

e|-----------3-----3----|-----------3-----3----|-----------3-----3----|
B|-----------1-----1----|-----3-----3-----3----|-----------3-----3----|
G|----------------------|--------0-----0-------|--------2-----2-------|
D|----------------------|----------------------|--0-------------------|
A|--------2-----2-------|--3-------------------|----------------------|
E|--0-------------------|----------------------|----------------------|

e|-----------3-----3----|-----------3-----3----|-----------3-----3----|
B|-----------3-----3----|-----------1-----1----|-----------3-----3----|
G|--------4-----4-------|----------------------|--------0-----0-------|
D|----------------------|----------------------|----------------------|
A|----------------------|--------2-----2-------|--3-------------------|
E|--0-------------------|--0-------------------|----------------------|

e|-----------3-----3----|-----------3-----3----|-----------3-----3----|
B|-----------3-----3----|-----------3-----3----|-----------1-----1----|
G|--------2-----2-------|--------4-----4-------|----------------------|
D|--0-------------------|----------------------|----------------------|
A|----------------------|----------------------|--------2-----2-------|
E|----------------------|--0-------------------|--0-------------------|

e|-----------3-----3----|-----------3-----3----|-----------3-----3L---|--3----|
B|-----3-----3-----3----|-----------3-----3----|-----------3-----3L---|--3----|
G|--------0-----0-------|--------2-----2-------|--------4-----4-------|-------|
D|----------------------|--0-------------------|----------------------|-------|
A|--3-------------------|----------------------|----------------------|-------|
E|----------------------|----------------------|--0L----0L-0L-0L-0L---|--0----|

e|-----------------3----------------------|
B|--------3--1s-3-------------------------|
G|-----0----------------------------------|
D|----------------------------------------|
A|--3-------------------------------------|
E|----------------------------------------|

e|-----------------2----------------------|-----------------3----|
B|--------3-------------------------------|--------------0-------|
G|-----2-----2>---------------------------|-----------0----------|
D|--0-----------0-------------------------|--------2-------------|
A|----------------------------------------|-----2----------------|
E|----------------------------------------|--0-------------------|

e|--2s-3--2-------------|-----------------3----|-----------------2----|--7--5----|
B|-----------3h-0-------|--------3--1--3s------|--------3-------------|--3--3----|
G|-----------------0----|-----0----------------|-----2-----2>---------|----------|
D|----------------------|----------------------|--0-----------0-------|----------|
A|----------------------|--3-------------------|----------------------|----------|
E|----------------------|----------------------|----------------------|----------|

e|--3-------|-----------------3----------------------|
B|--3--3----|--------3--1s-3-------------------------|
G|----------|-----0----------------------------------|
D|----------|----------------------------------------|
A|----------|--3-------------------------------------|
E|----------|----------------------------------------|

e|-----------------2----------------------|-----------------3----|
B|--------3-------------------------------|--------------0-------|
G|-----2-----2>---------------------------|-----------0----------|
D|--0-----------0-------------------------|--------2-------------|
A|----------------------------------------|-----2----------------|
E|----------------------------------------|--0-------------------|

e|--2s-3--2-------------|-----------------3----|-----------------2----|--7--5----|
B|-----------3h-0-------|--------3--1--3s------|--------3-------------|--3--3----|
G|-----------------0----|-----0----------------|-----2-----2>---------|----------|
D|----------------------|----------------------|--0-----------0-------|----------|
A|----------------------|--3-------------------|----------------------|----------|
E|----------------------|----------------------|----------------------|----------|

e|--3-------|-----------3-----3----|-----------3-----3----|-----------3-----3----|
B|--3--3----|-----------3-----3----|-----------3-----3----|-----------3-----3----|
G|----------|--------0-----0-------|--------2-----2-------|--------4-----4-------|
D|----------|----------------------|--0-------------------|----------------------|
A|----------|--3-------------------|----------------------|----------------------|
E|----------|----------------------|----------------------|--0-------------------|

e|-----------3-----3----|-----------3-----3----|-----------3-----3----|
B|-----------1-----1----|-----3-----3-----3----|-----------3-----3----|
G|----------------------|--------0-----0-------|--------2-----2-------|
D|----------------------|----------------------|--0-------------------|
A|--------2-----2-------|--3-------------------|----------------------|
E|--0-------------------|----------------------|----------------------|

e|-----------3-----3----|-----------3-----3----|-----------3-----3----|
B|-----------3-----3----|-----------3-----3----|-----------3-----3----|
G|--------4-----4-------|--------4-----4-------|--------0-----0-------|
D|----------------------|----------------------|----------------------|
A|----------------------|----------------------|--3-------------------|
E|--0-------------------|--0-------------------|----------------------|

e|-----------3-----3----|-----------3-----3----|-----------3-----3----|
B|-----------3-----3----|-----------3-----3----|-----------1-----1----|
G|--------2-----2-------|--------4-----4-------|----------------------|
D|--0-------------------|----------------------|----------------------|
A|----------------------|----------------------|--------2-----2-------|
E|----------------------|--0-------------------|--0-------------------|

e|-----------3-----3----|-----------3-----3----|-------------|--2--3s-10---|
B|-----3-----3-----3----|-----------3-----3----|--------3----|-------------|
G|--------0-----0-------|--------2-----2-------|-----4-------|-------------|
D|----------------------|--0-------------------|-------------|-------------|
A|--3-------------------|----------------------|-------------|-------------|
E|----------------------|----------------------|--0----------|-------------|

e|--7--------5--3--2L---|--2--3--5-----2-------|--3--------2s----3----|
B|----------------------|----------------------|----------------------|
G|----------------------|----------------------|----------------------|
D|-----------------0----|----------------------|----------------------|
A|--3-------------------|----------------------|----------------------|
E|----------------------|--------------0L------|--0-------------------|

e|--10----12----10-12---|--14-15-10---|
B|----------------------|-------------|
G|----------------------|-------------|
D|----------------------|--0L-0-------|
A|----------------------|-------------|
E|--------8-------------|-------------|

e|-----------7----------------------------------------------------------------|
B|--------0-------------------------------------------------------------------|
G|-----0----------------------------------------------------------------------|
D|----------------------------------------------------------------------------|
A|----------------------------------------------------------------------------|
E|--3L-3L-3L-3----------------------------------------------------------------|

e|-------------|--3-------------------|----------------------|
B|--0--1h-3s---|-----------3--1s-0L---|--0--1-----3-----3L---|
G|-------------|----------------------|-----------------0----|
D|-------------|--3-------------------|----------------------|
A|-------------|----------------------|-----------------3L---|
E|-------------|----------------------|----------------------|

e|----------------------|----------------------|-------------|-------------|
B|--3--1----------------|--1h-0----------------|-------------|-------------|
G|----------------------|--------2h-0----------|-----0--2----|-----0--2----|
D|----------------------|----------------------|--4----------|--4----------|
A|--3-------------------|--------------3h-2----|--3----------|--5----------|
E|----------------------|----------------------|-------------|-------------|

e|----------------------|--8h-7----------------|-------------|-------------|
B|----------------------|--------10h8--1h-0----|-------------|-------------|
G|----------------------|----------------------|-----0--2----|-----0--2----|
D|--4s----5-------------|----------------------|--4----------|--4----------|
A|----------------------|----------------------|--3----------|--5----------|
E|--0-------------------|----------------------|-------------|-------------|

e|----------------------|----------------------|-------------|-------------|
B|----------------------|--1h-0----------------|-------------|-------------|
G|--0-------------------|--------2h-0----------|-----0--2----|-----0--2----|
D|--------0-------------|----------------------|--4----------|--4----------|
A|----------------------|--------------3h-2----|--3----------|--5----------|
E|--3-------------------|----------------------|-------------|-------------|

e|----------------------|--8h-7----------------|-------------|-------------|
B|----------------------|--------10h8--1h-0----|-------------|-------------|
G|----------------------|----------------------|-----0--2----|-----0--2----|
D|--4-----5s------------|----------------------|--4----------|--4----------|
A|----------------------|----------------------|--3----------|--5----------|
E|--0-------------------|----------------------|-------------|-------------|

e|-----------3-----3----|-----------3-----3----|-----------3-----3----|
B|-----------3-----3----|-----------3-----3----|-----------3-----3----|
G|--0-----------0-------|--------0-----0-------|--------0-----0-------|
D|--------0-------------|----------------------|----------------------|
A|----------------------|----------------------|--3-------------------|
E|--3-------------------|--3-------------------|----------------------|

e|-----------3-----3----|-----------3-----3----|-----------3-----3----|
B|-----------3-----3----|-----------3-----3----|-----------1-----1----|
G|--------2-----2-------|--------4-----4-------|----------------------|
D|--0-------------------|----------------------|----------------------|
A|----------------------|----------------------|--------2-----2-------|
E|----------------------|--0-------------------|--0-------------------|

e|-----------3-----3----|-----------3-----3----|-----------3-----3----|
B|-----3-----3-----3----|-----------3-----3----|-----------3-----3----|
G|--------0-----0-------|--------2-----2-------|--------4-----4-------|
D|----------------------|--0-------------------|----------------------|
A|--3-------------------|----------------------|----------------------|
E|----------------------|----------------------|--0-------------------|

e|-----------3-----3----|-----------3-----3----|-----------3-----3----|
B|-----------1-----3----|-----------3-----3----|-----------3-----3----|
G|----------------------|--------0-----0-------|--------2-----2-------|
D|----------------------|----------------------|--0-------------------|
A|--------2-----2-------|--3-------------------|----------------------|
E|--0-------------------|----------------------|----------------------|

e|-----------3-----3L---|--3----|----------------------|----------------------|
B|-----------3-----3L---|--3----|--3--------0----------|-----------3--0--1----|
G|--------4-----4-------|-------|--0--------0----------|--------2-------------|
D|----------------------|-------|----------------------|--0-------------------|
A|----------------------|-------|--3-----3-----3-------|----------------------|
E|--0L----0L-0L-0L-0L---|--0----|----------------------|----------------------|

e|----------------------|----------------------|----------------------|
B|--3--------0----------|--------------0--1----|--3--------3--0--1----|
G|--0--------0----------|----------------------|--0--------0----------|
D|--------2-----2-------|--------2-------------|----------------------|
A|----------------------|----------------------|--3-----3-------------|
E|--0-------------------|--0-------------------|----------------------|

e|--------------0h-2----|--3--2s-0----|-------------|----------------------|
B|--3--------3----------|-------------|--3-----0----|--3--------0----------|
G|--2--------2----------|-------------|-------------|--0--------0----------|
D|--------0-------------|-------------|-------------|----------------------|
A|----------------------|-------------|-------------|--3-----3-----3-------|
E|----------------------|--0----------|-------------|----------------------|

e|----------------------|----------------------|----------------------|
B|-----------3--0--1----|--3--------0----------|--------------0h-1----|
G|--------2-------------|--0--------0----------|----------------------|
D|--0-------------------|--------2-----2-------|--------2-------------|
A|----------------------|----------------------|----------------------|
E|----------------------|--0-------------------|--0-------------------|

e|----------------------|--------------0h-2----|--3--2s-0----|-------------|
B|--3--------3--0--1----|--3--------3----------|-------------|--3-----0----|
G|--0--------0----------|--2--------2----------|-------------|-------------|
D|----------------------|--------0-------------|-------------|-------------|
A|--3-----3-------------|----------------------|-------------|-------------|
E|----------------------|----------------------|--0----------|-------------|

e|-----------7----------------------------------------------------------------|
B|--------0-------------------------------------------------------------------|
G|-----0----------------------------------------------------------------------|
D|----------------------------------------------------------------------------|
A|--3L-3L-3L-3----------------------------------------------------------------|
E|----------------------------------------------------------------------------|

e|--8--7--5----|--3----|--5--3--2----|--0-------------------|
B|-------------|--0----|-------------|-----------3--3-------|
G|-------------|--0----|-------------|-----------0--0-------|
D|-------------|-------|-------------|----------------------|
A|-------------|-------|-------------|--3-------------------|
E|-------------|--0----|-------------|----------------------|

e|--0-------------------|-------|
B|-----------3--3-------|--0----|
G|-----------2--2-------|--0----|
D|--0-------------------|-------|
A|----------------------|-------|
E|----------------------|--0----|

e|-----------7----------------------------------------------------------------|
B|--------0-------------------------------------------------------------------|
G|-----0----------------------------------------------------------------------|
D|----------------------------------------------------------------------------|
A|--3L-3L-3L-3----------------------------------------------------------------|
E|----------------------------------------------------------------------------|

e|--8--7--5----|--3----|--5--3s-2s---|--0-------------------|
B|-------------|--0----|-------------|-----------3--3-------|
G|-------------|--0----|-------------|-----------0--0-------|
D|-------------|-------|-------------|----------------------|
A|-------------|-------|-------------|--3-------------------|
E|-------------|--0----|-------------|----------------------|

e|--0-------------------|-------|-----------3-----3----|-----------3-----3----|
B|-----------3--3-------|--0----|-----------3-----3----|-----------3-----3----|
G|-----------2--2-------|--0----|--------0-----0-------|--------2-----2-------|
D|--0-------------------|-------|----------------------|--0-------------------|
A|----------------------|-------|--3-------------------|----------------------|
E|----------------------|--0----|----------------------|----------------------|

e|-----------3-----3L---|--3----|-----------3-----3----|-----------3-----3----|
B|-----------3-----3L---|--3----|-----------3-----3----|-----------3-----3----|
G|--------4-----4-------|-------|--------0-----0-------|--------2-----2-------|
D|----------------------|-------|----------------------|--0-------------------|
A|----------------------|-------|--3-------------------|----------------------|
E|--0L----0L-0L-0L-0L---|--0----|----------------------|----------------------|

e|-----------3-----3----|-----------3-----3----|-----------3-----3----|
B|-----------3-----3----|-----------1-----1----|-----3-----3-----3----|
G|--------4-----4-------|----------------------|--------0-----0-------|
D|----------------------|----------------------|----------------------|
A|----------------------|--------2-----2-------|--3-------------------|
E|--0-------------------|--0-------------------|----------------------|

e|-----------3-----3----|-----------3-----3----|-----------3-----3----|
B|-----------3-----3----|-----------3-----3----|-----------1-----3----|
G|--------2-----2-------|--------4-----4-------|----------------------|
D|--0-------------------|----------------------|----------------------|
A|----------------------|----------------------|--------2-----2-------|
E|----------------------|--0-------------------|--0-------------------|

e|-----------3-----3----|-----------3-----3----|-------------|--2s-3--10---|
B|-----------3-----3----|-----------3-----3----|--------3----|-------------|
G|--------0-----0-------|--------2-----2-------|-----4-------|-------------|
D|----------------------|--0-------------------|-------------|-------------|
A|--3-------------------|----------------------|-------------|-------------|
E|----------------------|----------------------|--0----------|-------------|

e|--7--------5--3--2L---|--2--3--5-----2-------|--3--------2s----3----|
B|----------------------|----------------------|----------------------|
G|----------------------|----------------------|----------------------|
D|-----------------0----|----------------------|----------------------|
A|--3-------------------|----------------------|----------------------|
E|----------------------|--------------0L------|--0-------------------|

e|--10----12----10-12---|--14-15-10---|
B|----------------------|-------------|
G|----------------------|-------------|
D|----------------------|--0L-0-------|
A|----------------------|-------------|
E|--------8-------------|-------------|

e|-----------7----------------------------------------------------------------|
B|--------0-------------------------------------------------------------------|
G|-----0----------------------------------------------------------------------|
D|----------------------------------------------------------------------------|
A|----------------------------------------------------------------------------|
E|--3L-3L-3L-3----------------------------------------------------------------|

e|-------------|--3-------------------|----------------------|
B|--0--1--3----|-----------3--1--0L---|--0--1-----3-----3L---|
G|-------------|----------------------|-----------------0----|
D|-------------|--3-------------------|----------------------|
A|-------------|----------------------|-----------------3L---|
E|-------------|----------------------|----------------------|

e|----------------------|----------------------|-------------|-------------|
B|--3--1.---------------|--1h-0----------------|-------------|-------------|
G|----------------------|--------2h-0----------|-----0--2----|-----0--2----|
D|----------------------|----------------------|--4----------|--4----------|
A|--3-------------------|--------------3h-2----|--3----------|--5----------|
E|----------------------|----------------------|-------------|-------------|

e|----------------------|--8h-7----------------|-------------|-------------|
B|----------------------|--------10s8--1h-0----|-------------|-------------|
G|----------------------|----------------------|-----0--2----|-----0--2----|
D|--4s----5-------------|----------------------|--4----------|--4----------|
A|----------------------|----------------------|--3----------|--5----------|
E|--0-------------------|----------------------|-------------|-------------|

e|----------------------|----------------------|-------------|-------------|
B|----------------------|--1h-0----------------|-------------|-------------|
G|--0-------------------|--------2h-0----------|-----0--2----|-----0--2----|
D|--------0.------------|----------------------|--4----------|--4----------|
A|----------------------|--------------3h-2----|--3----------|--5----------|
E|--3-------------------|----------------------|-------------|-------------|

e|----------------------|--8h-7----------------|-------------|-------------|
B|----------------------|--------10s8--1h-0----|-------------|-------------|
G|----------------------|----------------------|-----0--2----|-----0--2----|
D|--4s----5-------------|----------------------|--4----------|--4----------|
A|----------------------|----------------------|--3----------|--5----------|
E|--0-------------------|----------------------|-------------|-------------|

e|-----------3-----3----|-----------3-----3----|-----------3-----3----|
B|-----------3-----3----|-----------3-----3----|-----------3-----3----|
G|--0-----------0-------|--------0-----0-------|--------0-----0-------|
D|--------0-------------|----------------------|----------------------|
A|----------------------|----------------------|--3-------------------|
E|--3-------------------|--3-------------------|----------------------|

e|-----------3-----3----|-----------3-----3----|-----------3-----3----|
B|-----------3-----3----|-----------3-----3----|-----------1-----1----|
G|--------2-----2-------|--------4-----4-------|----------------------|
D|--0-------------------|----------------------|----------------------|
A|----------------------|----------------------|--------2-----2-------|
E|----------------------|--0-------------------|--0-------------------|

e|-----------3-----3----|-----------3-----3----|-----------3-----3----|
B|-----3-----3-----3----|-----------3-----3----|-----------3-----3----|
G|--------0-----0-------|--------2-----2-------|--------4-----4-------|
D|----------------------|--0-------------------|----------------------|
A|--3-------------------|----------------------|----------------------|
E|----------------------|----------------------|--0-------------------|

e|-----------3-----3----|-----------3-----3----|-----------3-----3----|
B|-----------1-----3----|-----------3-----3----|-----------3-----3----|
G|----------------------|--------0-----0-------|--------2-----2-------|
D|----------------------|----------------------|--0-------------------|
A|--------2-----2-------|--3-------------------|----------------------|
E|--0-------------------|----------------------|----------------------|

e|-----------3-----3L---|--3----|----------------------|----------------------|
B|-----------3-----3L---|--3----|--3--------0----------|-----------3--0h-1----|
G|--------4-----4-------|-------|--0--------0----------|--------2-------------|
D|----------------------|-------|----------------------|--0-------------------|
A|----------------------|-------|--3-----3-----3-------|----------------------|
E|--0L----0L-0L-0L-0L---|--0----|----------------------|----------------------|

e|----------------------|----------------------|----------------------|
B|--3--------0----------|--------------0h-1----|--3--------3--0--1----|
G|--0--------0----------|----------------------|--0--------0----------|
D|--------2-----2-------|--------2-------------|----------------------|
A|----------------------|----------------------|--3-----3-------------|
E|--0-------------------|--0-------------------|----------------------|

e|--------------0h-2----|--3--2--0----|-------------|----------------------|
B|--3--------3----------|-------------|--3-----0----|--3--------0----------|
G|--2--------2----------|-------------|-------------|--0--------0----------|
D|--------0-------------|-------------|-------------|----------------------|
A|----------------------|-------------|-------------|--3-----3-----3-------|
E|----------------------|--0----------|-------------|----------------------|

e|----------------------|----------------------|----------------------|
B|-----------3--0h-1----|--3--------0----------|--------------0h-1----|
G|--------2-------------|--0--------0----------|----------------------|
D|--0-------------------|--------2-----2-------|--------2-------------|
A|----------------------|----------------------|----------------------|
E|----------------------|--0-------------------|--0-------------------|

e|----------------------|--------------0h-2----|--3--2--0----|-------------|
B|--3--------3--0--1----|--3--------3----------|-------------|--3-----0----|
G|--0--------0----------|--2--------2----------|-------------|-------------|
D|----------------------|--------0-------------|-------------|-------------|
A|--3-----3-------------|----------------------|-------------|-------------|
E|----------------------|----------------------|--0----------|-------------|

e|-----------7----------------------------------------------------------------|
B|--------0-------------------------------------------------------------------|
G|-----0----------------------------------------------------------------------|
D|----------------------------------------------------------------------------|
A|--3L-3L-3L-3----------------------------------------------------------------|
E|----------------------------------------------------------------------------|

e|--8--7--5----|--3----|--5--3--2----|--0-------------------|
B|-------------|--0----|-------------|-----------3--3-------|
G|-------------|--0----|-------------|-----------0--0-------|
D|-------------|-------|-------------|----------------------|
A|-------------|-------|-------------|--3-------------------|
E|-------------|--0----|-------------|----------------------|

e|--0-------------------|-------|
B|-----------3--3-------|--0----|
G|-----------2--2-------|--0----|
D|--0-------------------|-------|
A|----------------------|-------|
E|----------------------|--0----|

e|-----------7----------------------------------------------------------------|
B|--------0-------------------------------------------------------------------|
G|-----0----------------------------------------------------------------------|
D|----------------------------------------------------------------------------|
A|--3L-3L-3L-3----------------------------------------------------------------|
E|----------------------------------------------------------------------------|

e|--8--7--5----|--3----|--5--3--2h---|--0-------------------|
B|-------------|--0----|-------------|-----------3--3-------|
G|-------------|--0----|-------------|-----------0--0-------|
D|-------------|-------|-------------|----------------------|
A|-------------|-------|-------------|--3-------------------|
E|-------------|--0----|-------------|----------------------|

e|--0-------------------|-------|-------------|--2--3s-10---|
B|-----------3--3-------|--0----|--------3----|-------------|
G|-----------2--2-------|--0----|-----4-------|-------------|
D|--0-------------------|-------|-------------|-------------|
A|----------------------|-------|-------------|-------------|
E|----------------------|--0----|--0----------|-------------|

e|--7--------5--3--2L---|--2--3--5-----2-------|--3--------2s----3----|
B|----------------------|----------------------|----------------------|
G|----------------------|----------------------|----------------------|
D|-----------------0----|----------------------|----------------------|
A|--3-------------------|----------------------|----------------------|
E|----------------------|--------------0L------|--0-------------------|

e|--10----12----10-12---|--14g15-22---|-----------7L-7L------------------------|
B|----------------------|-------------|--------0-------------------------------|
G|----------------------|-------------|-----0----------------------------------|
D|----------------------|--0L-0-------|----------------------------------------|
A|----------------------|-------------|----------------------------------------|
E|--------8-------------|-------------|--3L-3L-3L-3L-3L------------------------|

e|--7----|
B|-------|
G|-------|
D|-------|
A|-------|
E|--3----|



************************************

| h  Hammer-on
| g  Grace note
| > 
| .  
| L  
| s  

************************************

            
            
Suggest correction
Creating personal tab
Creating personal tab
You can edit any tab online and save it as your Personal.

You can edit, replace or remove any tab part or add personal notes – all changes will be seen only by you.

Personal tabs can be accessed anytime from any device, even offline.
Learn more »
Give kudos to tab author, rate the tab!
1 2 3 4 5
comments
print report bad tab
guest
Wanna post a correction for this tab? Suggest correction