Oops, an error
Loading. Please wait.

Njosnavelin tab

version 3
version 3

Whole song

  • This version features tabs for the synth refrain a... Show more
  • Fingerstyle version of Njosnavelin by Sigur Ros.

Interactive

85 views 3 this week
no commentswrite comment
1 2 3 4 5
2 more votes to show rating
add to favorites
×
Save as Personal and add changes to this tab that will be seen only by you. Learn more ›
×
You can save this tab as Personal to edit and correct it or add notes. All changes will be seen only by you. Learn more »
launch autoscroll
font size
0
reset
how to read this tab
guitar tuner
edit
Autoscroll
slow
fast
+/-
esc
set tempo
stop
About this tab version
This version features tabs for the synth refrain and the piano solo for an acoustic guitar, alongside basic tabs for the entire song. This closely follows the studio version, but is also fit for a solo plus vocal performance. The studio version is the fourth track off the Untitled ( ) album. Was this info helpful? Yes No
[BPM - 120]
[The song goes like this - Intro, Chorus #1, Verse #1, Chorus #2, Verse #2, Chorus #3, Refrain, Verse #3, 
Chorus #4, Piano Solo + Outro]

[Start]

[Intro]
e|----------------|----------------|----------------|----------------|
B|----1-----------|----------------|------1---------|0---------------|
G|--2-------------|----------------|----0-----------|----------------|
D|3---------------|----------------|--2-------------|----------------|
A|----------------|----------------|3---------------|----------------|
E|----------------|----------------|----------------|----------------|

e|----------------|----------------|----------------|----------------|
B|----1-----------|----------------|------1---------|3---------------|
G|--2-------------|----------------|----0-----------|----------------|
D|3---------------|----------------|--2-------------|----------------|
A|----------------|----------------|3---------------|----------------|
E|----------------|----------------|----------------|----------------|

e|----------------|----------------|----------------|----------------|
B|----1-----------|----------------|------1---------|0---------------|
G|--2-------------|----------------|----0-----------|----------------|
D|3---------------|----------------|--2-------------|----------------|
A|----------------|----------------|3---------------|----------------|
E|----------------|----------------|----------------|----------------|

e|----------------|----------------|----------------|--------0-------|
B|----1-----------|----------------|------1---------|3---------------|
G|--2-------------|----------------|----0-----------|----------------|
D|3---------------|----------------|--2-------------|----------------|
A|----------------|----------------|3---------------|----------------|
E|----------------|----------------|----------------|----------------|

e|----------------|----------------|----------------|----------------|
B|----1-----------|----------------|------1---------|0---------------|
G|--2-------------|----------------|----0-----------|----------------|
D|3---------------|----------------|--2-------------|----------------|
A|----------------|----------------|3---------------|----------------|
E|----------------|----------------|----------------|----------------|

e|----------------|----------------|----------------|----------------|
B|----1-----------|----1-----------|----3-----------|5---------------|
G|--2-------------|--0-------------|--0-------------|----------------|
D|3---------------|2---------------|0---------------|----------------|
A|----------------|----------------|----------------|----------------|
E|----------------|----------------|----------------|----------------|

[Chorus #1]
Main Riff variation A
e|--------1-------|0---------------|----------------|----------------|
B|----1-------1---|----------------|------1---------|0---------------|
G|--2---2---------|----------------|----0-----------|--------0-------|
D|----------------|----------------|--2-------------|----------------|
A|----------------|0---------------|3---------------|----------------|
E|1-----------3---|----------------|----------------|3---------------|

Main Riff variation B1
e|--------1-------|0---------------|----------------|--------0-------|
B|----1-------1---|----------------|------1---------|3-------5-------|
G|--2---2---------|----------------|----0-----------|----------------|
D|----------------|----------------|--2-------------|----------------|
A|----------------|0---------------|3---------------|----------------|
E|1-----------3---|----------------|----------------|3---------------|

Main Riff variation A (x1)
Main Riff variation B2
e|--------1-------|0---------------|----------------|------------0-0-|
B|----1-------1---|----------------|------1---------|----------------|
G|--2---2---------|----------------|----0-----------|----------------|
D|----------------|----------------|--2-------------|----------------|
A|----------------|0---------------|3---------------|----------------|
E|1-----------3---|----------------|----------------|----------------|

[Verse#1]
e|----------------|----------------|----------------|------------0-0-|
B|----1-----------|----------------|------1---------|0---------------|
G|--2-------------|----------------|----0-----------|----------------|
D|3---------------|----------------|--2-------------|----------------|
A|----------------|----------------|3---------------|----------------|
E|----------------|----------------|----------------|----------------|

e|----------------|----------------|----------------|----------------|
B|----1---3-------|----1---1-------|----3-3---------|5---------------|
G|--2-------------|--0-------------|--0---------0---|----------------|
D|3---------------|2---------------|0---------------|----------------|
A|----------------|----------------|----------------|----------------|
E|----------------|----------------|----------------|----------------|

e|----------------|----------------|----------------|------------0-0-|
B|----1-----------|----------------|------1---------|0---------------|
G|--2-------------|----------------|----0-----------|----------------|
D|3---------------|----------------|--2-------------|----------------|
A|----------------|----------------|3---------------|----------------|
E|----------------|----------------|----------------|----------------|

e|----------------|----------------|----------------|0-------3---0---|
B|----1---3-------|----1---1-------|----3-3-----0---|----------------|
G|--2-------------|--0-------------|--0-------------|----------------|
D|3---------------|2---------------|0---------------|----------------|
A|----------------|----------------|----------------|----------------|
E|----------------|----------------|----------------|----------------|
(For the upcoming verses, make sure you add that quarter note on the small e string before you start the 
verse bars. You can also add in the bass notes whilst playing the verse if this doesn’t sound that rich.)

[Chorus #2]
Main Riff variation A
e|--------1-------|0---------------|----------------|----------------|
B|----1-------1---|----------------|------1---------|0---------------|
G|--2---2---------|----------------|----0-----------|--------0-------|
D|----------------|----------------|--2-------------|----------------|
A|----------------|0---------------|3---------------|----------------|
E|1-----------3---|----------------|----------------|3---------------|

Main Riff variation C
e|--------1-------|0---------------|----------------|----------------|
B|----1-------1---|------------3---|--------0-------|1---------------|
G|--2---2---------|----------------|----0-------0---|----------------|
D|----------------|----------------|----------------|----------------|
A|----------------|----------------|----------------|----------------|
E|1---------------|0---------------|3---------------|----------------|

Main Riff variation A (x1)
Main Riff variation C (x1)

[Verse #2]
(Same as Verse #1)
e|----------------|----------------|----------------|------------0-0-|
B|----1-----------|----------------|------1---------|0---------------|
G|--2-------------|----------------|----0-----------|----------------|
D|3---------------|----------------|--2-------------|----------------|
A|----------------|----------------|3---------------|----------------|
E|----------------|----------------|----------------|----------------|

e|----------------|----------------|----------------|----------------|
B|----1---3-------|----1---1-------|----3-3---------|5---------------|
G|--2-------------|--0-------------|--0---------0---|----------------|
D|3---------------|2---------------|0---------------|----------------|
A|----------------|----------------|----------------|----------------|
E|----------------|----------------|----------------|----------------|

e|----------------|----------------|----------------|------------0-0-|
B|----1-----------|----------------|------1---------|0---------------|
G|--2-------------|----------------|----0-----------|----------------|
D|3---------------|----------------|--2-------------|----------------|
A|----------------|----------------|3---------------|----------------|
E|----------------|----------------|----------------|----------------|

e|----------------|----------------|----------------|0-------3---0---|
B|----1---3-------|----1---1-------|----3-3-----0---|----------------|
G|--2-------------|--0-------------|--0-------------|----------------|
D|3---------------|2---------------|0---------------|----------------|
A|----------------|----------------|----------------|----------------|
E|----------------|----------------|----------------|----------------|

[Chorus #3]
Main Riff variation D
e|--------1-------|0---------------|----------------|----------------|
B|----1-------1---|----------------|------1---------|0---------------|
G|--2---2---------|----------------|----0-----------|--------0-------|
D|----------------|----------------|--2-------------|----------------|
A|0---------------|0---------------|----------------|----------------|
E|----------------|----------------|3---------------|3---------------|

[Main Riff variation C]
e|--------1-------|0---------------|----------------|----------------|
B|----1-------1---|------------3---|--------0-------|1---------------|
G|--2---2---------|----------------|----0-------0---|----------------|
D|----------------|----------------|----------------|----------------|
A|----------------|----------------|----------------|----------------|
E|1---------------|0---------------|3---------------|----------------|

[Refrain]
(Don't pick too hard, just keep it quiet and minimalist)
Synth + Bow refrain (x2)
e|----------------|----------------|----------------|----------------|
B|1---------------|1-----------6---|6-----------6---|----5-----------|
G|----------------|----------------|----------------|----------------|
D|----------------|----------------|----------------|----------------|
A|0-----------2---|3---------------|5---------------|3---------------|
E|----------------|----------------|----------------|----------------|

e|----------------|----------------|----------------|----------------|
B|5-------5-------|3-----------3---|3---5---5-------|3---------------|
G|----------------|----------------|----------------|----------------|
D|----------------|----------------|----------------|----------------|
A|2---3---0-------|----------------|2---3---0-------|----------------|
E|----------------|3---------------|----------------|3---------------|

[Verse #3]
(Same as Verse #1)
e|----------------|----------------|----------------|------------0-0-|
B|----1-----------|----------------|------1---------|0---------------|
G|--2-------------|----------------|----0-----------|----------------|
D|3---------------|----------------|--2-------------|----------------|
A|----------------|----------------|3---------------|----------------|
E|----------------|----------------|----------------|----------------|

e|----------------|----------------|----------------|----------------|
B|----1---3-------|----1---1-------|----3-3---------|5---------------|
G|--2-------------|--0-------------|--0---------0---|----------------|
D|3---------------|2---------------|0---------------|----------------|
A|----------------|----------------|----------------|----------------|
E|----------------|----------------|----------------|----------------|

e|----------------|----------------|----------------|------------0-0-|
B|----1-----------|----------------|------1---------|0---------------|
G|--2-------------|----------------|----0-----------|----------------|
D|3---------------|----------------|--2-------------|----------------|
A|----------------|----------------|3---------------|----------------|
E|----------------|----------------|----------------|----------------|

e|----------------|----------------|----------------|0-------3---0---|
B|----1---3-------|----1---1-------|----3-3-----0---|----------------|
G|--2-------------|--0-------------|--0-------------|----------------|
D|3---------------|2---------------|0---------------|----------------|
A|----------------|----------------|----------------|----------------|
E|----------------|----------------|----------------|----------------|

[Chorus #4]
Main Riff variation D
e|--------1-------|0---------------|----------------|----------------|
B|----1-------1---|----------------|------1---------|0---------------|
G|--2---2---------|----------------|----0-----------|--------0-------|
D|----------------|----------------|--2-------------|----------------|
A|0---------------|0---------------|----------------|----------------|
E|----------------|----------------|3---------------|3---------------|

Main Riff variation C
e|--------1-------|0---------------|----------------|----------------|
B|----1-------1---|------------3---|----0---1-------|----------------|
G|--2---2---------|----------------|---0--0---------|----------------|
D|----------------|----------------|----------------|----------------|
A|----------------|----------------|----------------|----------------|
E|1---------------|0---------------|3---------------|----------------|

Main Riff variation D (x1)
Main Riff variation C (x1)

Piano Solo (repeat till song ends, slowly fade out)
(An octave below the studio version, experiment on the 12th fret if you wish to be precise)
e|----------------|0-----------0---|1-----------1---|0-------0-----0-|
B|1-------1---3---|--------1-------|--------3-------|----1-----1-----|
G|------2---0---0-|----0-----------|----2-----------|------------0---|
D|----------------|----------------|0-----0---------|----------------|
A|----0-------2---|3-----3---3-----|----------------|3-----3---------|
E|----------------|----------------|----------------|----------------|

e|----0-----------|----------------|----0-----------|----------------|
B|3-------1---1---|----0-----0-----|3-------1---1---|----0--0--0-----|
G|--0---0---------|------5-----5---|--0---0---------|------5-----5---|
D|----------------|--------5-----5-|----------------|--------5-----5-|
A|2---3---0-------|----------------|2---3---0-------|----------------|
E|----------------|3---------------|----------------|3---------------|

[End]

            
            
Suggest correction
Creating personal tab
Creating personal tab
You can edit any tab online and save it as your Personal.

You can edit, replace or remove any tab part or add personal notes – all changes will be seen only by you.

Personal tabs can be accessed anytime from any device, even offline.
Learn more »
Give kudos to tab author, rate the tab!
1 2 3 4 5
comments
print report bad tab
guest
You may want to rate the tab now too:
select rating
Wanna post a correction for this tab? Suggest correction