Oops, an error
Loading. Please wait.

What Equals Love tab

85 views 9 this week
1 commentread comment
1 2 3 4 5
1 last vote to show rating
add to favorites
×
Save as Personal and add changes to this tab that will be seen only by you. Learn more ›
×
You can save this tab as Personal to edit and correct it or add notes. All changes will be seen only by you. Learn more »
launch autoscroll
font size
0
reset
how to read this tab
guitar tuner
edit
Autoscroll
slow
fast
+/-
esc
set tempo
stop
Artist: Maxïmo Park
Song: What Equals Love?
From the album: Risk To Exist (2017)
Tabbed by egg-marteeni
28th June 2017

[Intro]
e|--5-5-5-5-8-8-8-5---5-5-5-5---5-5-5-5---8--8--8----|
B|--6-6-6-6-6-6-6-6---6-6-6-6---6-6-6-6---8--8--8----|
G|--7-7-7-7-7-7-7-7---7-7-7-7---7-7-7-7---9--9--9----|
D|----------------------------------------10-10-10---|
A|----------------------------------------10-10-10---|  (x2)
E|----------------------------------------8--8--8----|

[Verse]
     "And the lie was not enough..."
e|--------------|
B|--------------|
G|--------------|
D|------3-------|
A|--1-------3---|  (x2)
E|--------------|

     "Time just stopped and I must wait..."
e|--------------|
B|--------------|
G|--------------|
D|------0-------|
A|--1-------3---|  (x1)
E|--------------|

     "Enter into the debate..."
e|--------------|
B|--------------|
G|--------------|
D|------3-------|
A|--1-------3---|  (x3)
E|--------------|

[Pre-chorus]
     "Is it just the scene you've been stealing..."
e|--6-6-6---5-5-5---8----8--8--8--8----8--8--8--8----5-5-5---|
B|--6-6-6---6-6-6---8----8--8--8--8----8--8--8--8----6-6-6---|
G|--7-7-7---7-7-7---9----9--9--9--9----9--9--9--9----7-7-7---|
D|--8-8-8---7-7-7---10---10-10-10-10---10-10-10-10---7-7-7---|
A|--8-8-8---5-5-5---10---10-10-10-10---10-10-10-10---5-5-5---|  (x1)
E|--6-6-6-----------8----8--8--8--8----8--8--8--8------------|

     "Or is it your heart that needs healing..."
e|--6-6-6---5-5-5---8----8--8--8--8----8--8--8--8----8--8--8--8--8--8----|
B|--6-6-6---6-6-6---8----8--8--8--8----8--8--8--8----8--8--8--8--8--8----|
G|--7-7-7---7-7-7---9----9--9--9--9----9--9--9--9----9--9--9--9--9--9----|
D|--8-8-8---7-7-7---10---10-10-10-10---10-10-10-10---10-10-10-10-10-10---|
A|--8-8-8---5-5-5---10---10-10-10-10---10-10-10-10---10-10-10-10-10-10---|  (x1)
E|--6-6-6-----------8----8--8--8--8----8--8--8--8----8--8--8--8--8--8----|

[Chorus]
     "What equals love..."
e|--5-5-5-5-8-8-8-5---5-5-5-5---5-5-5-5---8--8--8----|
B|--6-6-6-6-6-6-6-6---6-6-6-6---6-6-6-6---8--8--8----|
G|--7-7-7-7-7-7-7-7---7-7-7-7---7-7-7-7---9--9--9----|
D|----------------------------------------10-10-10---|
A|----------------------------------------10-10-10---|  (x4)
E|----------------------------------------8--8--8----|

[Verse]
     "I will call you to account..."
e|--------------|
B|--------------|
G|--------------|
D|------3-------|
A|--1-------3---|  (x2)
E|--------------|

     "Lock up the glass house every day..."
e|--------------|
B|--------------|
G|--------------|
D|------0-------|
A|--1-------3---|  (x1)
E|--------------|

     "Hope the problem goes away..."
e|--------------|
B|--------------|
G|--------------|
D|------3-------|
A|--1-------3---|  (x3)
E|--------------|

[Pre-chorus]
     "Is it just the scene you've been stealing..."
e|--6-6-6---5-5-5---8----8--8--8--8----8--8--8--8----5-5-5---|
B|--6-6-6---6-6-6---8----8--8--8--8----8--8--8--8----6-6-6---|
G|--7-7-7---7-7-7---9----9--9--9--9----9--9--9--9----7-7-7---|
D|--8-8-8---7-7-7---10---10-10-10-10---10-10-10-10---7-7-7---|
A|--8-8-8---5-5-5---10---10-10-10-10---10-10-10-10---5-5-5---|  (x1)
E|--6-6-6-----------8----8--8--8--8----8--8--8--8------------|

     "Or is it your heart that needs healing..."
e|--6-6-6---5-5-5---8----8--8--8--8----8--8--8--8----8--8--8--8--8--8----|
B|--6-6-6---6-6-6---8----8--8--8--8----8--8--8--8----8--8--8--8--8--8----|
G|--7-7-7---7-7-7---9----9--9--9--9----9--9--9--9----9--9--9--9--9--9----|
D|--8-8-8---7-7-7---10---10-10-10-10---10-10-10-10---10-10-10-10-10-10---|
A|--8-8-8---5-5-5---10---10-10-10-10---10-10-10-10---10-10-10-10-10-10---|  (x1)
E|--6-6-6-----------8----8--8--8--8----8--8--8--8----8--8--8--8--8--8----|

[Chorus]
     "What equals love..."
e|--5-5-5-5-8-8-8-5---5-5-5-5---5-5-5-5---8--8--8----|
B|--6-6-6-6-6-6-6-6---6-6-6-6---6-6-6-6---8--8--8----|
G|--7-7-7-7-7-7-7-7---7-7-7-7---7-7-7-7---9--9--9----|
D|----------------------------------------10-10-10---|
A|----------------------------------------10-10-10---|  (x4)
E|----------------------------------------8--8--8----|

[Bridge]
e|-------|
B|-------|
G|-------|
D|-------|
A|--5t---|
E|-------|

[Chorus]
     "What equals love..."
e|--5-5-5-5-8-8-8-5---5-5-5-5---5-5-5-5---8--8--8----|
B|--6-6-6-6-6-6-6-6---6-6-6-6---6-6-6-6---8--8--8----|
G|--7-7-7-7-7-7-7-7---7-7-7-7---7-7-7-7---9--9--9----|
D|----------------------------------------10-10-10---|
A|----------------------------------------10-10-10---|  (x4)
E|----------------------------------------8--8--8----|

     "I really wanna work it out..."
e|--9--9--9--9--12-12-12-9----9--9--9--9----9--9--9--9----12-12-12----|
B|--10-10-10-10-10-10-10-10---10-10-10-10---10-10-10-10---12-12-12----|
G|--11-11-11-11-11-11-11-11---11-11-11-11---11-11-11-11---13-13-13----|
D|--------------------------------------------------------14-14-14----|
A|--------------------------------------------------------14-14-14----|  (x1)
E|--------------------------------------------------------12-12-12----|

     "I really wanna work it out..."
e|--9--9--9--9--12-12-12-9----9--9--9--9----9--9--9--9----|
B|--10-10-10-10-10-10-10-10---10-10-10-10---10-10-10-10---|
G|--11-11-11-11-11-11-11-11---11-11-11-11---11-11-11-11---|
D|--------------------------------------------------------|
A|--------------------------------------------------------|  (x1)
E|--------------------------------------------------------|

     "What equals love..."
e|--5-5-5-5-8-8-8-5---5-5-5-5---5-5-5-5---8--8--8----|
B|--6-6-6-6-6-6-6-6---6-6-6-6---6-6-6-6---8--8--8----|
G|--7-7-7-7-7-7-7-7---7-7-7-7---7-7-7-7---9--9--9----|
D|----------------------------------------10-10-10---|
A|----------------------------------------10-10-10---|  (x8)
E|----------------------------------------8--8--8----|

[Outro]
e|--------------------------------------------------------------|
B|--------------------------------------------------------------|
G|--------------------------------------------------------------|
D|------3---------------3---------------0-----------------------|
A|--1-------3-------1-------3-------1-------3-----------1---3---|  (x2)
E|--------------------------------------------------3-----------|



************************************

| t  tremolo picking

************************************

            
            
Suggest correction
Creating personal tab
Creating personal tab
You can edit any tab online and save it as your Personal.

You can edit, replace or remove any tab part or add personal notes – all changes will be seen only by you.

Personal tabs can be accessed anytime from any device, even offline.
Learn more »
Give kudos to tab author, rate the tab!
1 2 3 4 5
comments
print report bad tab
1 comment total.
0 reply
sammurray381 36 Oct 10, 2017 11:36 AM

Great tab, spot on!

guest
You may want to rate the tab now too:
select rating
Wanna post a correction for this tab? Suggest correction