Oops, an error
Loading. Please wait.

All I Want chords

7 views 1 this week
no commentswrite comment
1 2 3 4 5
3 more votes to show rating
add to favorites
×
Save as Personal and add changes to this tab that will be seen only by you. Learn more ›
×
You can save this tab as Personal to edit and correct it or add notes. All changes will be seen only by you. Learn more »
launch autoscroll
font size
0
reset
transpose
0
reset
display chords
guitar tuner
edit
Autoscroll
slow
fast
+/-
esc
set tempo
stop
About this tab version
Perfectly accurate to the original. Was this info helpful? Yes No
Strumming Is this strumming pattern correct? Yes No
Verse 120 bpm
1
2
3
4
5
6
7
8
Listen
[Intro]
(Riff 1)
E|-------------------------|--------------------------|-------------------|
B|-------------------------|--------------------------|-------------------|
G|-------------------------|--------------------------|-------------------|
D|-------------------------|--------------------------|-------------------|
A|-------------------------|--------------------------|-------------------|
E|--0-3-5-8-7-5-3-5-5-3-0--|--0-3-5-8-7-5-3-5---------|-------------------|

(Riff 2)
       Am     F   G     Em    Am     F    G  Am
E|-------------------------|--------------------------|-------------------|
B|-------------------------|--------------------------|-------------------|
G|-------------------------|--------------------------|-------------------|
D|---5-7-10-9-7-5-7-7-5----|---5-7-10-9-7-5-7---------|-------------------|
A|-7--------------------7--|-7------------------------|-------------------|
E|-------------------------|--------------------------|-------------------|

  Am
E|-----------------------------|
B|-----------------------------|
G|-----------------------------|
D|-7-9-10-10-10-10-9-7-5-7-----|
A|-----------------------------|
E|-----------------------------|

[Verse 1]
          Am       C       F       G
The first moment I laid my eyes on you
      Am        C            E
I was perfectly sure, that I wanted you
        Am             C          F         G
And you came, right my way, and I held your hand
           Am          C              E
Looked you deep in the eyes, so you’d understand

[Pre-Chorus]
        Dm       Bb        F          C
You are one of a kind, I‘d never hurt you
            Dm            Bb      E
‘cause it’s not something I would ever do

[Chorus]
      Am           F       G       Em
All I want is your love, I want it now
       Am         F  G  Am
I want it to last forever                + Riff 2
        Am     F        G       Em
Yes you are my sweetest poison, babe
        Am        F G Am
Ty nuzhna mne krasavica

  Am
E|--------------------|
B|--------------------|
G|--------------------|
D|-7-9-10-9-7-5-7-----|
A|--------------------|
e|--------------------|

[Verse2]
         Am         C        F       G
You were there when I needed you the most
          Am       C            E
Dreams of us, together, shadows of a ghost
         Am            F           G            Em
Who took you away from me, Oh love come back to me
            Am          F           E
‘Cause it’s you my love belongs to, can’t you see⁠⁠⁠⁠

[Pre-Chorus]
        Dm       Bb        F          C
You are one of a kind, I‘d never hurt you
            Dm            Bb      E
‘cause it’s not something I would ever do

[Chorus]
      Am           F       G       Em
All I want is your love, I want it now
       Am         F  G  Am
I want it to last forever                + Riff 2
        Am     F        G       Em
Yes you are my sweetest poison, babe
        Am        F G Am
Ty nuzhna mne krasavica

  Am
E|-----------------------------|
B|-----------------------------|
G|-----------------------------|
D|-7-9-10-10-10-10-9-7-5-7-----|
A|-----------------------------|
e|-----------------------------|

[Solo]
       Am       F        G        Em       Am        F     G       Am
E|-----------------------10-10-10-8-|12-10-8------------------------------|
B|---8-10-13-12-13-12-13------------|-------12-13-13-13-13-12-10-8-10-----|
G|-9--------------------------------|-------------------------------------|
D|----------------------------------|-------------------------------------|
A|----------------------------------|-------------------------------------|
E|----------------------------------|-------------------------------------|

       Am       F        G        Em       Am        F     G       Am
E|-----------------------10-10-10-10|12-10-8-------------------------------|
B|---8-10-13-12-13-12-13------------|-------12-13-13-12-13-12-10-8-10-10-10|
G|-9--------------------------------|--------------------------------------|
D|----------------------------------|--------------------------------------|
A|----------------------------------|--------------------------------------|
E|----------------------------------|--------------------------------------|

            G  Am
E|-------------------------------------|
B|-10-10-10-8-/10-10-10-10-10-10-10-10-|
G|-------------------------------------|
D|-------------------------------------|
A|-------------------------------------|
E|-------------------------------------|

[Chorus]
      Bm           G       A       F#m
All I want is your love, I want it now
       Bm         G  A  Bm
I want it to last forever                + Riff 3
        Bm     G        A       F#m
Yes you are my sweetest poison, babe
        Bm        G A Bm
Ty nuzhna mne krasavica

[Riff 3]
       Bm     G   A     F#m   Bm     G    A  Bm
E|-------------------------|--------------------------|-------------------|
B|-------------------------|--------------------------|-------------------|
G|-------------------------|--------------------------|-------------------|
D|---7-9-12-11-9-7-9-9-7---|---7-9-12-11-9-7-9--------|-------------------|
A|-9--------------------9--|-9------------------------|-------------------|
E|-------------------------|--------------------------|-------------------|

            
            
Suggest correction
Creating personal tab
Creating personal tab
You can edit any tab online and save it as your Personal.

You can edit, replace or remove any tab part or add personal notes – all changes will be seen only by you.

Personal tabs can be accessed anytime from any device, even offline.
Learn more »
Give kudos to tab author, rate the tab!
1 2 3 4 5
comments
print report bad tab
guest
Wanna post a correction for this tab? Suggest correction