Oops, an error
Loading. Please wait.

Pettävällä Jäällä solo tab

version 1
version 1

Solo

by
31 views 6 this week
no commentswrite comment
1 2 3 4 5
3 more votes to show rating
add to favorites
×
Save as Personal and add changes to this tab that will be seen only by you. Learn more ›
×
You can save this tab as Personal to edit and correct it or add notes. All changes will be seen only by you. Learn more »
launch autoscroll
font size
0
reset
how to read this tab
guitar tuner
edit
Autoscroll
slow
fast
+/-
esc
set tempo
stop
[Solo 1]
(≈ 1:10)
   Bm              F#m/A      G                   Em            Bm    A
e|-10----9--10---|--------7-|-7-----------------|---------7-9-|-10----12--9-7-|
B|-------------7-|----------|---10-10-8-8-7-7-8-|-------7-----|---------------|
G|---------------|----------|-------------------|-9-----------|---------------|
D|---------------|----------|-------------------|-------------|---------------|
A|---------------|----------|-------------------|-------------|---------------|
E|---------------|----------|-------------------|-------------|---------------|

   G            Em/C#                 F#sus4   F#
e|-------7-12-|-12-10-10-9-9-7-9-10-|-9------|--------|
B|------------|---------------------|--------|--------|
G|------------|---------------------|--------|--------|
D|------------|---------------------|--------|--------|
A|------------|---------------------|--------|--------|
E|------------|---------------------|--------|--------|
                                                2. Luvanneet on rakastaa...

[Solo 2]
(≈ 2:30)      | key change
   G7           Cm               Gm/Bb      Ab                  Fm
e|-------8-10-|-11----10--11---|--------8-|-8-----------------|----------8-10-|
B|-----8------|--------------8-|----------|---11-11-9-9-8-8-9-|--------8------|
G|------------|----------------|----------|-------------------|-10------------|
D|------------|----------------|----------|-------------------|---------------|
A|------------|----------------|----------|-------------------|---------------|
E|------------|----------------|----------|-------------------|---------------|

   Cm    Bb         Ab          Fm/D                     Gsus4       G
e|-11----13--10-8-|--------13-|-13-11-11-10-10-8-10-11-|-10--------|-----------|
B|----------------|-----------|------------------------|-----------|-----------|
G|----------------|-----------|------------------------|-----------|-----------|
D|----------------|-----------|------------------------|-----------|-----------|
A|----------------|-----------|------------------------|-----------|-----------|
E|----------------|-----------|------------------------|-----------|-----------|
                                                                        Riittäisikö täällä...

... kun ilta viile - 

[Solo 3]
(≈ 3:37)
   Ab                       Cm                         Ab                      Bb
e|-8--------|-------10-11-|-11---------|-------10-11-|-11-------|------------|-----------------|
B|----------|-------------|------8-8---|-------------|------9-9-|-------8--9-|-11------11--9-8-|
G|----------|-------------|------------|-------------|----------|------------|-----------------|
D|----------|-------------|------------|-------------|----------|------------|-----------------|
A|----------|-------------|------------|-------------|----------|------------|-----------------|
E|----------|-------------|------------|-------------|----------|------------|-----------------|
 - nee

                Ab                           Cm                    Ab
e|---------11-|-10---8----|-----13--11--10-|-11--------|---------|---------------------------|
B|------------|--------9--|----------------|------8-8--|-------8-|-8-------------------------|
G|-10---------|-----------|----------------|-----------|---------|-----10--10--10--10---8--8-|
D|------------|-----------|----------------|-----------|---------|---------------------------|
A|------------|-----------|----------------|-----------|---------|---------------------------|
E|------------|-----------|----------------|-----------|---------|---------------------------|

                      Cm/G       G                Fm
e|------------------|----------|----------------|------------------|
B|------------------|----------|----------------|------------------|
G|-8--7--5--5--7--8-|-8--------|-7--------------|-5----------------|
D|------------------|----------|----------------|------------------|
A|------------------|----------|----------------|------------------|
E|------------------|----------|----------------|------------------|
                                     Riittäisikö täällä, pettävällä...
Suggest correction
Creating personal tab
Creating personal tab
You can edit any tab online and save it as your Personal.

You can edit, replace or remove any tab part or add personal notes – all changes will be seen only by you.

Personal tabs can be accessed anytime from any device, even offline.
Learn more »
Give kudos to tab author, rate the tab!
1 2 3 4 5
comments
print report bad tab
guest
You may want to rate the tab now too:
select rating
Wanna post a correction for this tab? Suggest correction