Oops, an error
Loading. Please wait.

Sinä Olet Minun tab

82 views 9 this week
no commentswrite comment
1 2 3 4 5
3 more votes to show rating
add to favorites
×
Save as Personal and add changes to this tab that will be seen only by you. Learn more ›
×
You can save this tab as Personal to edit and correct it or add notes. All changes will be seen only by you. Learn more »
launch autoscroll
font size
0
reset
how to read this tab
guitar tuner
edit
Autoscroll
slow
fast
+/-
esc
set tempo
stop
About this tab version
Whole song tabbed for two guitars. Based on live performances, fits with the album version. Was this info helpful? Yes No
Guitar 1 - clean sähkökitara / electric guitar, clean
Guitar 2 - akustinen kitara / acoustic guitar

F - xx3211

[Intro]
(Guitar 1: tab - Guitar 2: N.C.)
   Am
e|-----------------------|-----------------------|-----------------------|-----------------------|
B|----------1------------|----------1------------|----------1------------|----------1------------|
G|----2----------2-----2-|----2----------2-----2-|----2----------2-----2-|----2----------2-----2-|
D|-------2----------2----|-------2----------2----|-------2----------2----|-------2----------2----|
A|-0---------------------|-0---------------------|-0---------------------|-0---------------------|
E|-----------------------|-----------------------|-----------------------|-----------------------|

[Verse 1]
(Guitar 1: tab - Guitar 2: N.C.)
   Am                                              G
e|-----------------------|-----------------------|-----------------------|-----------------------|
B|----------1------------|----------1------------|----------1------------|----------0------------|
G|----2----------2-----2-|----2----------2-----2-|----0----------0-----0-|----0----------0-----0-|
D|-------2----------2----|-------2----------2----|-------0----------0----|-------0----------0----|
A|-0---------------------|-0---------------------|-----------------------|-----------------------|
E|-----------------------|-----------------------|-3---------------------|-3---------------------|
    Alussa  jo                   tän lopun mä      tiesin                                     Mut

   Dm                                              E
e|----------1------------|----------1------------|-----------------------|-----------------------|
B|----3----------3-----3-|----3----------3-----3-|----------0------------|----------0------------|
G|-------2----------2----|-------2----------2----|----1----------1-----1-|----1----------1-----1-|
D|-0---------------------|-0---------------------|-------2----------2----|-------0----------0----|
A|-----------------------|-----------------------|-----------------------|-----------------------|
E|-----------------------|-----------------------|-0---------------------|-0---------------------|
   suruista viis                     sut omaksi    vaadin

   Am                                              G
e|-----------------------|-----------------------|-----------------------|-----------------------|
B|----------1------------|----------1------------|----------1------------|----------0------------|
G|----2----------2-----2-|----2----------2-----2-|----0----------0-----0-|----0----------0-----0-|
D|-------2----------2----|-------2----------2----|-------0----------0----|-------0----------0----|
A|-0---------------------|-0---------------------|-----------------------|-----------------------|
E|-----------------------|-----------------------|-3---------------------|-3---------------------|
   Näinhän mä sen                   sä et voisi    jäädä

   Dm                                              E
e|----------1------------|----------1------------|-----------------------|-----------------------|
B|----3----------3-----3-|----3----------3-----3-|----------0------------|----------0------------|
G|-------2----------2----|-------2----------2----|----1----------1-----1-|----1----------1-----1-|
D|-0---------------------|-0---------------------|-------2----------2----|-------2----------2----|
A|-----------------------|-----------------------|-----------------------|-----------------------|
E|-----------------------|-----------------------|-0---------------------|-0---------------------|
   käymässä vain                    on tuollaiset täällä               nyt aika  on  mennä

[Chorus]
(Guitar 1: tab - Guitar 2: strum chords once)
   Dm                      E                       Am                      F
e|----------1------------|-----------------------|-----------------------|----------1------------|
B|----3----------3-----3-|----------0------------|----------1------------|----1----------1-----1-|
G|-------2----------2----|----1----------1-----1-|----2----------2-----2-|-------2----------2----|
D|-0---------------------|-------2----------2----|-------2----------2----|-3---------------------|
A|-----------------------|-----------------------|-0---------------------|-----------------------|
E|-----------------------|-0---------------------|-----------------------|-----------------------|
   Sinun                                minä olen  sinun                                 mee sun

   Dm                      E                       Am
e|----------1------------|-----------------------|-----------------------|-----------------------|
B|----3----------3-----3-|----------0------------|----------1------------|----------1------------|
G|-------2----------2----|----1----------1-----1-|----2----------2-----2-|----2----------2-----2-|
D|-0---------------------|-------2----------2----|-------2----------2----|-------2----------2----|
A|-----------------------|-----------------------|-0---------------------|-0---------------------|
E|-----------------------|-0---------------------|-----------------------|-----------------------|
   l u o   -   j a l   -   les             kerto - maan

   Dm                      E                       Am                      F
e|----------1------------|-----------------------|-----------------------|----------1------------|
B|----3----------3-----3-|----------0------------|----------1------------|----1----------1-----1-|
G|-------2----------2----|----1----------1-----1-|----2----------2-----2-|-------2----------2----|
D|-0---------------------|-------2----------2----|-------2----------2----|-3---------------------|
A|-----------------------|-----------------------|-0---------------------|-----------------------|
E|-----------------------|-0---------------------|-----------------------|-----------------------|
   Minun                                sinä olet  minun                                  vaikka

   Dm                      E                       Am
e|----------1------------|-----------------------|-----------------------|-----------------------|
B|----3----------3-----3-|----------0------------|----------1------------|----------1------------|
G|-------2----------2----|----1----------1-----1-|----2----------2-----2-|----2----------2-----2-|
D|-0---------------------|-------2----------2----|-------2----------2----|-------2----------2----|
A|-----------------------|-----------------------|-0---------------------|-0---------------------|
E|-----------------------|-0---------------------|-----------------------|-----------------------|
   pois       nyt          sua             kanne - taan

[Verse 2]
(Guitar 1: tab - Guitar 2: strum chords)
   Am                                              G
e|-----------------------|-----------------------|-----------------------|-----------------------|
B|----------1------------|----------1------------|----------1------------|----------0------------|
G|----2----------2-----2-|----2----------2-----2-|----0----------0-----0-|----0----------0-----0-|
D|-------2----------2----|-------2----------2----|-------0----------0----|-------0----------0----|
A|-0---------------------|-0---------------------|-----------------------|-----------------------|
E|-----------------------|-----------------------|-3---------------------|-3---------------------|
    Satuja  vain                    no kuka sen    tietää                                     Mut

   Dm                                              E
e|----------1------------|----------1------------|-----------------------|-----------------------|
B|----3----------3-----3-|----3----------3-----3-|----------0------------|----------0------------|
G|-------2----------2----|-------2----------2----|----1----------1-----1-|----1----------1-----1-|
D|-0---------------------|-0---------------------|-------2----------2----|-------0----------0----|
A|-----------------------|-----------------------|-----------------------|-----------------------|
E|-----------------------|-----------------------|-0---------------------|-0---------------------|
   julma hän on                      ken tällaista säätää

   Am                                              G
e|-----------------------|-----------------------|-----------------------|-----------------------|
B|----------1------------|----------1------------|----------1------------|----------0------------|
G|----2----------2-----2-|----2----------2-----2-|----0----------0-----0-|----0----------0-----0-|
D|-------2----------2----|-------2----------2----|-------0----------0----|-------0----------0----|
A|-0---------------------|-0---------------------|-----------------------|-----------------------|
E|-----------------------|-----------------------|-3---------------------|-3---------------------|
   Kirottu mies                      sut matkaasi  saattaa

   Dm                                              E
e|----------1------------|----------1------------|-----------------------|-----------------------|
B|----3----------3-----3-|----3----------3-----3-|----------0------------|----------0------------|
G|-------2----------2----|-------2----------2----|----1----------1-----1-|----1----------1-----1-|
D|-0---------------------|-0---------------------|-------2----------2----|-------2----------2----|
A|-----------------------|-----------------------|-----------------------|-----------------------|
E|-----------------------|-----------------------|-0---------------------|-0---------------------|
   Kellot jo soi                      ja ystävät   oottaa              mut lupaatko muistaa

[Chorus]
(Guitar 1: tab - Guitar 2: strum chords)
   Dm                      E                       Am                      F
e|----------1------------|-----------------------|-----------------------|----------1------------|
B|----3----------3-----3-|----------0------------|----------1------------|----1----------1-----1-|
G|-------2----------2----|----1----------1-----1-|----2----------2-----2-|-------2----------2----|
D|-0---------------------|-------2----------2----|-------2----------2----|-3---------------------|
A|-----------------------|-----------------------|-0---------------------|-----------------------|
E|-----------------------|-0---------------------|-----------------------|-----------------------|
   Sinun                                minä olen  sinun                                 mee sun

   Dm                      E                       Am
e|----------1------------|-----------------------|-----------------------|-----------------------|
B|----3----------3-----3-|----------0------------|----------1------------|----------1------------|
G|-------2----------2----|----1----------1-----1-|----2----------2-----2-|----2----------2-----2-|
D|-0---------------------|-------2----------2----|-------2----------2----|-------2----------2----|
A|-----------------------|-----------------------|-0---------------------|-0---------------------|
E|-----------------------|-0---------------------|-----------------------|-----------------------|
   l u o   -   j a l   -   les             kerto - maan

   Dm                      E                       Am                      F
e|----------1------------|-----------------------|-----------------------|----------1------------|
B|----3----------3-----3-|----------0------------|----------1------------|----1----------1-----1-|
G|-------2----------2----|----1----------1-----1-|----2----------2-----2-|-------2----------2----|
D|-0---------------------|-------2----------2----|-------2----------2----|-3---------------------|
A|-----------------------|-----------------------|-0---------------------|-----------------------|
E|-----------------------|-0---------------------|-----------------------|-----------------------|
   Minun                                sinä olet  minun                                  vaikka

   Dm                      E                       Am
e|----------1------------|-----------------------|-----------------------|-----------------------|
B|----3----------3-----3-|----------0------------|----------1------------|----------1------------|
G|-------2----------2----|----1----------1-----1-|----2----------2-----2-|----2----------2-----2-|
D|-0---------------------|-------2----------2----|-------2----------2----|-------2----------2----|
A|-----------------------|-----------------------|-0---------------------|-0---------------------|
E|-----------------------|-0---------------------|-----------------------|-----------------------|
   pois       nyt          sua             kanne - taan

[Bridge]
(Guitar 1 & 2: strum chords)
   Am                          G
Ja varmista että hän käsittää, mitä hän varasti taas
Dm                       E
Palasen kauneinta elämää tuli näin tuhoamaan
   Am                        G
Ja katsokin että hän tajuaa, ettei mun kotiini voi
Dm                         E
Murtautua kuinka haluaa ja ryöstää mun rakkainta pois

[Chorus]
(Guitar 1: tab)
   Dm                      E                       Am                      F
e|----------1------------|-----------------------|-----------------------|----------1------------|
B|----3----------3-----3-|----------0------------|----------1------------|----1----------1-----1-|
G|-------2----------2----|----1----------1-----1-|----2----------2-----2-|-------2----------2----|
D|-0---------------------|-------2----------2----|-------2----------2----|-3---------------------|
A|-----------------------|-----------------------|-0---------------------|-----------------------|
E|-----------------------|-0---------------------|-----------------------|-----------------------|
   Sinun                                minä olen  sinun                                 mee sun

   Dm                      E                       Am (Guitar 2 starts playing chords)
e|----------1------------|-----------------------|-----------------------|-----------------------|
B|----3----------3-----3-|----------0------------|----------1------------|----------1------------|
G|-------2----------2----|----1----------1-----1-|----2----------2-----2-|----2----------2-----2-|
D|-0---------------------|-------2----------2----|-------2----------2----|-------2----------2----|
A|-----------------------|-----------------------|-0---------------------|-0---------------------|
E|-----------------------|-0---------------------|-----------------------|-----------------------|
   l u o   -   j a l   -   les             kerto - maan

   Dm                      E                       Am                      F
e|----------1------------|-----------------------|-----------------------|----------1------------|
B|----3----------3-----3-|----------0------------|----------1------------|----1----------1-----1-|
G|-------2----------2----|----1----------1-----1-|----2----------2-----2-|-------2----------2----|
D|-0---------------------|-------2----------2----|-------2----------2----|-3---------------------|
A|-----------------------|-----------------------|-0---------------------|-----------------------|
E|-----------------------|-0---------------------|-----------------------|-----------------------|
   Minun                                sinä olet  minun                                  vaikka

   Dm                      E                       Am
e|----------1------------|-----------------------|-----------------------|-----------------------|
B|----3----------3-----3-|----------0------------|----------1------------|----------1------------|
G|-------2----------2----|----1----------1-----1-|----2----------2-----2-|----2----------2-----2-|
D|-0---------------------|-------2----------2----|-------2----------2----|-------2----------2----|
A|-----------------------|-----------------------|-0---------------------|-0---------------------|
E|-----------------------|-0---------------------|-----------------------|-----------------------|
   pois       nyt          sua             kanne - taan

[Outro]
(Guitar 1: tab - Guitar 2: strum chords)
   Dm                      E                       Am                      F
e|----------1------------|-----------------------|-----------------------|----------1------------|
B|----3----------3-----3-|----------0------------|----------1------------|----1----------1-----1-|
G|-------2----------2----|----1----------1-----1-|----2----------2-----2-|-------2----------2----|
D|-0---------------------|-------2----------2----|-------2----------2----|-3---------------------|
A|-----------------------|-----------------------|-0---------------------|-----------------------|
E|-----------------------|-0---------------------|-----------------------|-----------------------|

                                                  (Guitar 1: tab - Guitar 2: N.C.)
   Dm                      E                       Am
e|----------1------------|-----------------------|-----------------------||
B|----3----------3-----3-|----------0------------|-----------------------||
G|-------2----------2----|----1----------1-----1-|-----------------------||
D|-0---------------------|-------2----------2----|-----------------------||  No guitar
A|-----------------------|-----------------------|-0---------------------||
E|-----------------------|-0---------------------|-----------------------||

            
            
Suggest correction
Creating personal tab
Creating personal tab
You can edit any tab online and save it as your Personal.

You can edit, replace or remove any tab part or add personal notes – all changes will be seen only by you.

Personal tabs can be accessed anytime from any device, even offline.
Learn more »
Give kudos to tab author, rate the tab!
1 2 3 4 5
comments
print report bad tab
guest
You may want to rate the tab now too:
select rating
Wanna post a correction for this tab? Suggest correction