Oops, an error
Loading. Please wait.

Triste Louca Ou Má chords

34 views 9 this week
no commentswrite comment
1 2 3 4 5
3 more votes to show rating
add to favorites
×
Save as Personal and add changes to this tab that will be seen only by you. Learn more ›
×
You can save this tab as Personal to edit and correct it or add notes. All changes will be seen only by you. Learn more »
launch autoscroll
font size
0
reset
transpose
0
reset
simplify chords
display chords
guitar tuner
edit
Autoscroll
slow
fast
+/-
esc
set tempo
stop
Strumming
There is no strumming pattern for this song yet. and get +5 IQ
Artista: Triste, Louca ou Má
Música: Francisco el Hombre, Labaq, Helena Maria, Salma Jô, Renata Éssis
Album: Soltasbruxa
Transcrição: gustavoaraujo999@hotmail.com

**Referência: https://www.youtube.com/watch?v=s8ex-MEv62o
**Segurar os acordes no segundo verso em vez do ritmo
**A variação do [Outro] também é tocada no pré-refrão



[Intro]
   Gm                F                 Cm                Cm
   1 & 2 & 3 & 4 &   1 & 2 & 3 & 4 &   1 & 2 & 3 & 4 &   1 & 2 & 3 & 4 &
e|-----------------|-----------------|-----------------|-----------------|
B|-------3---------|-------1---------|-------4---------|-------4p3-------|
G|-------3---------|-------2---------|-------5---------|-------5-----5---|
D|-----------------|-----------------|-------------5---|-------5---------|
A|-------------5\--|-------------3---|-3---------------|-3---------------|
E|-3---------------|-1---------------|-----------------|-----------------|

   1 & 2 & 3 & 4 &   1 & 2 & 3 & 4 &   1 & 2 & 3 & 4 &   1 & 2 & 3 & 4 &
e|-----------------|-----------------|-----------------|-----------------|
B|-------3---------|-------1---------|-------4---------|-------4---------|
G|-------3---------|-------2---------|-------5---------|-------5---------|
D|-----------------|-----------------|-------------5---|-------5---------|
A|-------------5\--|-------------3---|-3---------------|-------------3---|
E|-3---------------|-1---------------|-----------------|-----------------|


[Verso 1]
Gm     F          Cm
Triste louca ou má
            Gm        F           Cm
Será qualificada, ela quem recusar
               Gm       F          Cm
Seguir receita tal, a receita cultural
                Gm
Do marido, da família
       F          Cm
Cuida, cuida da rotina


[Pré-refrão]
Gm    F     Cm
   Só mesmo    rejeita
Gm     F    Cm
   Bem conhecida receita
Gm      F       Cm
   Quem não sem     dores
Gm  F         Cm7
   Aceita que tudo deve mudar


[Refrão]
Gm              F        Cm
   Que um homem não te define
Gm          F        Cm
   Sua casa não te define
Gm           F        Cm
   Sua carne não te define

Você é seu próprio lar
Gm              F        Cm
   Que um homem não te define
Gm          F        Cm
   Sua casa não te define
Gm           F        Cm
   Sua carne não te define


[Verso 2]
Gm    F       Cm
Ela desatinou
        Gm
Desatou nós
      F      Cm
Vai viver só

Gm    F       Cm
Ela desatinou
        Gm
Desatou nós
      F      Cm
Vai viver só


[Interlúdio]
Gm  F  Cm  Cm
Gm  F  Cm  Cm
Gm  F  Cm  Cm
Gm  F  Cm  Cm


[Bridge]
Gm           F         Cm
   Eu não me vejo na palavra
               Gm
Fêmea: Alvo de caça
      F        Cm
Conformada vítima
Gm   F            Cm
Prefiro queimar o mapa
                   Gm
Traçar de novo a estrada
      F              Cm
Ver cores nas cinzas

E a vida reinventar


[Refrão 2]
Gm            F        Cm
   E um homem não me define
Gm            F        Cm
   Minha casa não me define
Gm             F        Cm
   Minha carne não me define

Eu sou meu próprio lar
Gm            F        Cm
   E um homem não me define
Gm            F        Cm
   Minha casa não me define
Gm             F        Cm
   Minha carne não me define

Eu sou meu próprio lar


[Bridge 2]
Gm    F       Cm
Ela desatinou
        Gm
Desatou nós
      F      Cm
Vai viver só

Gm    F       Cm
Ela desatinou
        Gm
Desatou nós
      F      Cm
Vai viver só


[Bridge 3] (letras do refrão e do verso 2 ao mesmo tempo)
Gm            F        Cm
   E um homem não me define
Gm            F        Cm
   Minha casa não me define
Gm             F        Cm
   Minha carne não me define

Eu sou meu próprio lar
Gm            F        Cm
   E um homem não me define
Gm            F        Cm
   Minha casa não me define
Gm             F        Cm
   Minha carne não me define

Eu sou meu próprio lar


[Outro]
   1 & 2 & 3 & 4 &   1 & 2 & 3 & 4 &   1 & 2 & 3 & 4 &   1 & 2 & 3 & 4 &
e|-----------------|-----------------|-----------------|-----------------|
B|-------3---------|-------1---------|-------4---------|-------4p3-------|
G|-------3---------|-------2---------|-------5---------|-------5-----5---|
D|-----------------|-----------------|-------------5---|-------5---------|
A|-------------5\--|-------------3---|-3---------------|-3---------------|
E|-3---------------|-1---------------|-----------------|-----------------|

   1 & 2 & 3 & 4 &   1 & 2 & 3 & 4 &   1 & 2 & 3 & 4 &   1 & 2 & 3 & 4 &
e|-----------------|-----------------|-----------------|-----------------|
B|-------3---------|-------3p1-------|(4)--------------|-----------------|
G|-------3---------|-------2-----3---|-3---------------|-----------------|
D|-----------------|-----------------|-----------------|-----------------|
A|-------------5\--|-----------------|-3---------------|-----------------|
E|-3---------------|-1---------------|-----------------|-----------------|

Suggest correction
Creating personal tab
Creating personal tab
You can edit any tab online and save it as your Personal.

You can edit, replace or remove any tab part or add personal notes – all changes will be seen only by you.

Personal tabs can be accessed anytime from any device, even offline.
Learn more »
Give kudos to tab author, rate the tab!
1 2 3 4 5
comments
print report bad tab
guest
You may want to rate the tab now too:
select rating
Wanna post a correction for this tab? Suggest correction