Oops, an error
Loading. Please wait.

瑠璃色の夜へ bass

7 views 1 this week
no commentswrite comment
1 2 3 4 5
3 more votes to show rating
add to favorites
×
Save as Personal and add changes to this tab that will be seen only by you. Learn more ›
×
You can save this tab as Personal to edit and correct it or add notes. All changes will be seen only by you. Learn more »
launch autoscroll
font size
0
reset
guitar tuner
edit
Autoscroll
slow
fast
+/-
esc
set tempo
stop
[Intro]
G|-4-4-4-4-4-4-4-4|-4-4-4-4-4-4-4-4|----------------|----------------| (x2)
D|----------------|----------------|-5-5-5-5-5-5-5-5|-5-5-5-5-5-5-5-5|
A|----------------|----------------|----------------|----------------|
E|----------------|----------------|----------------|----------------|

G|----------------|----------------|----------------|----------------|
D|-2-2-2-2-2-2-2-2|-2-2-2-2-2-2-2-2|-4-4-4-4-4-4-4-4|-4-4-4-4-4-4-4-4|
A|----------------|----------------|----------------|----------------|
E|----------------|----------------|----------------|----------------|

[Verse]
G|-4-4-4-4-4-4-4-4|-4-4-4-4-4-4-4-4|----------------|----------------|
D|----------------|----------------|-2-2-2-2-2-2-2-2|-4-4-4-4-4-4-4-4|
A|----------------|----------------|----------------|----------------|
E|----------------|----------------|----------------|----------------|

G|----------------|-2-2-2-2-2-2-2-2|-4-4-4-4-4-4-4-4|-4-4-4-4-4-4-4-4|
D|-2-2-2-2-2-2-2-2|----------------|----------------|----------------|
A|----------------|----------------|----------------|----------------|
E|----------------|----------------|----------------|----------------|

G|-4-4-4-4-4-4-4-4|-4-4-4-4-4-4-4-4|----------------|----------------|
D|----------------|----------------|-2-2-2-2-2-2-2-2|-4-4-4-4-4-4-4-4|
A|----------------|----------------|----------------|----------------|
E|----------------|----------------|----------------|----------------|

G|----------------|-2-2-2-2-2-2-2-2|-4-4-4-4-4-4-4-4|-4-4-4-----|
D|-2-2-2-2-2-2-2-2|----------------|----------------|-----------|
A|----------------|----------------|----------------|-----------|
E|----------------|----------------|----------------|-----------|

[Pre-Chorus]
G|----------|----------------|----------|-4-4-4-4-4-4-4-4|
D|----------|-7-7-7-7-7-7-7-7|----------|----------------|
A|-7--7-----|----------------|-5--5-----|----------------|
E|----------|----------------|----------|----------------|

G|------------|------------|----------------------------|
D|-2-2-2-2----|-5-5-5-5----|-4-4-4-4-4--4-4--4-4--4-4--4|
A|------------|------------|----------------------------|
E|------------|------------|----------------------------|

[Chorus]
G|-4-4-4-4-4-4-4-4|----------------|-4-4-4-4-4-4-4-4|-2-2-2-2-2-2-2-2|
D|----------------|-2-2-2-2-2-2-2-2|----------------|----------------|
A|----------------|----------------|----------------|----------------|
E|----------------|----------------|----------------|----------------|

G|----------------|----------------|----------------|---------|
D|-5-5-5-5-5-5-5-5|----------------|-4-4-4-4-4-4-4-4|-4-------|
A|----------------|-4-4-4-4-4-4-4-4|----------------|---------|
E|----------------|----------------|----------------|---------|

[Interlude]
G|-4-4-4-4-4-4-4-4|-4-4-4-4-4-4-4-4|----------------|----------------| (x2)
D|----------------|----------------|-5-5-5-5-5-5-5-5|-5-5-5-5-5-5-5-5|
A|----------------|----------------|----------------|----------------|
E|----------------|----------------|----------------|----------------|

G|----------------|----------------|----------------|----------------|
D|-2-2-2-2-2-2-2-2|-2-2-2-2-2-2-2-2|-4-4-4-4-4-4-4-4|-4-4-4-4-4-4-4-4|
A|----------------|----------------|----------------|----------------|
E|----------------|----------------|----------------|----------------|

[Verse]
G|-4-4-4-4-4-4-4-4|-4-4-4-4-4-4-4-4|----------------|----------------|
D|----------------|----------------|-2-2-2-2-2-2-2-2|-4-4-4-4-4-4-4-4|
A|----------------|----------------|----------------|----------------|
E|----------------|----------------|----------------|----------------|

G|----------------|-2-2-2-2-2-2-2-2|-4-4-4-4-4-4-4-4|-4-4-4-4-4-4-4-4|
D|-2-2-2-2-2-2-2-2|----------------|----------------|----------------|
A|----------------|----------------|----------------|----------------|
E|----------------|----------------|----------------|----------------|

G|-4-4-4-4-4-4-4-4|-4-4-4-4-4-4-4-4|----------------|----------------|
D|----------------|----------------|-2-2-2-2-2-2-2-2|-4-4-4-4-4-4-4-4|
A|----------------|----------------|----------------|----------------|
E|----------------|----------------|----------------|----------------|

G|----------------|-2-2-2-2-2-2-2-2|-4-4-4-4-4-4-4-4|-4-4-4-----|
D|-2-2-2-2-2-2-2-2|----------------|----------------|-----------|
A|----------------|----------------|----------------|-----------|
E|----------------|----------------|----------------|-----------|

[Pre-Chorus]
G|----------|----------------|----------|-4-4-4-4-4-4-4-4|
D|----------|-7-7-7-7-7-7-7-7|----------|----------------|
A|-7--7-----|----------------|-5--5-----|----------------|
E|----------|----------------|----------|----------------|

G|------------|------------|----------------------------|
D|-2-2-2-2----|-5-5-5-5----|-4-4-4-4-4--4-4--4-4--4-4--4|
A|------------|------------|----------------------------|
E|------------|------------|----------------------------|

[Chorus]
G|-4-4-4-4-4-4-4-4|----------------|-4-4-4-4-4-4-4-4|-2-2-2-2-2-2-2-2|
D|----------------|-2-2-2-2-2-2-2-2|----------------|----------------|
A|----------------|----------------|----------------|----------------|
E|----------------|----------------|----------------|----------------|

G|----------------|----------------|----------------|---------|
D|-5-5-5-5-5-5-5-5|----------------|-4-4-4-4-4-4-4-4|-4-------|
A|----------------|-4-4-4-4-4-4-4-4|----------------|---------|
E|----------------|----------------|----------------|---------|

[Instrumental]
G|-4-4-4-4-4-4-4-4|-4-4-4-4-4-4-4-4|-4-4-4-4-4-4-4-4|-4-4-4-4-4-4-4-4|
D|----------------|----------------|----------------|----------------|
A|----------------|----------------|----------------|----------------|
E|----------------|----------------|----------------|----------------|

G|-4-4-4-4-4-4-4-4|-4-4-4-4-4-4-4-4|-4-4-4-4-4-4-4-4|-4-4-4-----|
D|----------------|----------------|----------------|-----------|
A|----------------|----------------|----------------|-----------|
E|----------------|----------------|----------------|-----------|

[Pre-Chorus]
G|----------|----------------|----------|-4-4-4-4-4-4-4-4|
D|----------|-7-7-7-7-7-7-7-7|----------|----------------|
A|-7--7-----|----------------|-5--5-----|----------------|
E|----------|----------------|----------|----------------|

G|------------|------------|----------------------------|
D|-2-2-2-2----|-5-5-5-5----|-4-4-4-4-4--4-4--4-4--4-4--4|
A|------------|------------|----------------------------|
E|------------|------------|----------------------------|

[Chorus]
G|-4-4-4-4-4-4-4-4|----------------|-4-4-4-4-4-4-4-4|-2-2-2-2-2-2-2-2|
D|----------------|-2-2-2-2-2-2-2-2|----------------|----------------|
A|----------------|----------------|----------------|----------------|
E|----------------|----------------|----------------|----------------|

G|----------------|----------------|----------------|---------|
D|-5-5-5-5-5-5-5-5|----------------|-4-4-4-4-4-4-4-4|-4-------|
A|----------------|-4-4-4-4-4-4-4-4|----------------|---------|
E|----------------|----------------|----------------|---------|

[Outro]
G|-4-4-4-4-4-4-4-4|-4-4-4-4-4-4-4-4|----------------|----------------|
D|----------------|----------------|-5-5-5-5-5-5-5-5|-5-5-5-5-5-5-5-5|
A|----------------|----------------|----------------|----------------|
E|----------------|----------------|----------------|----------------|

G|-4-4-4-4-4-4-4-4|-4-4-4-4-4-4-4-4|----------------|-2-2-2-2-2-2-2-2|
D|----------------|----------------|-5-5-5-5-5-5-5-5|----------------|
A|----------------|----------------|----------------|----------------|
E|----------------|----------------|----------------|----------------|
                                                           (fade out)
G|-4-4-4-4-4-4-4-4|-4-4-4-4-4-4-4-4|-4-4-4-4-4-4-4-4|-4-4-4-4-4-4-4-4|
D|----------------|----------------|----------------|----------------|
A|----------------|----------------|----------------|----------------|
E|----------------|----------------|----------------|----------------|

            
            
Suggest correction
Creating personal tab
Creating personal tab
You can edit any tab online and save it as your Personal.

You can edit, replace or remove any tab part or add personal notes – all changes will be seen only by you.

Personal tabs can be accessed anytime from any device, even offline.
Learn more »
Give kudos to tab author, rate the tab!
1 2 3 4 5
comments
print report bad tab
guest
You may want to rate the tab now too:
select rating
Wanna post a correction for this tab? Suggest correction