Oops, an error
Loading. Please wait.

Für Diese Eine Nacht bass

58 views 3 this week
no commentswrite comment
1 2 3 4 5
3 more votes to show rating
add to favorites
×
Save as Personal and add changes to this tab that will be seen only by you. Learn more ›
×
You can save this tab as Personal to edit and correct it or add notes. All changes will be seen only by you. Learn more »
launch autoscroll
font size
0
reset
guitar tuner
edit
Autoscroll
slow
fast
+/-
esc
set tempo
stop
About this tab version
Corrected Version (comments from kohinaa). Was this info helpful? Yes No
[Intro]
G|-------------------------------------|--------------------------------------|
D|-------------------------------------|--------------------------------------|
A|-------------------------------------|--------------------------------------|
E|-3-3----3-3-3----3-3-3----3-3-3----3-|-3-3----3-3-3----3-3-3----3-3-3----3--|

G|-------------------------------------|--------------------------------------|
D|-------------------------------------|--------------------------------------|
A|-------------------------------------|-1---1---1-1-1-1--3--3---3-3-3-3------|
E|-0-0----0-0-0----0-1-1----1-1-1----1-|--------------------------------------|

[Verse 1]
G|-------------------------------------|--------------------------------------|
D|-------------------------------------|--------------------------------------|
A|-------------------------------------|--------------------------------------|
E|-3-3----3-3-3----3-3-3----3-3-3----3-|-3-3----3-3-3----3-3-3----3-3-3----3--|

G|-------------------------------------|--------------------------------------|
D|-------------------------------------|--------------------------------------|
A|-------------------------------------|--------------------------------------|
E|-0-0----0-0-0----0-1-1----1-1-1----1-|--------------------------------------|

G|-------------------------------------|--------------------------------------|
D|-------------------------------------|--------------------------------------|
A|-------------------------------------|--------------------------------------|
E|-3-3----3-3-3----3-3-3----3-3-3----3-|-3-3----3-3-3----3-3-3----3-3-3----3--|

G|-------------------------------------|--------------------------------------|
D|-------------------------------------|--------------------------------------|
A|-------------------------------------|-1---1---1-1-1-1--3--3---3-3-3-3------|
E|-0-0----0-0-0----0-1-1----1-1-1----1-|--------------------------------------|

[Chorus]
G|-------------------------------------|--------------------------------------|
D|-3-------3----3----5-------3----3----|--------------------------------------|
A|-------------------------------------|--3-------3--3--3---5---3---5---3-----|
E|-------------------------------------|--------------------------------------|

G|-------------------------------------|--------------------------------------|
D|-------------------------------------|--------------------3-------3---------|
A|-5-------5----5----8-------5----5----|--1-------1--1--1-------1-------1-----|
E|-------------------------------------|--------------------------------------|

G|-------------------------------------|--------------------------------------|
D|-3-------3----3----5-------3----3----|--------------------------------------|
A|-------------------------------------|--3-------3--3--3---5---3---5---3-----|
E|-------------------------------------|--------------------------------------|

G|-------------------------------------|--------------------------------------|
D|-------------------------------------|--------------------3-------3---------|
A|-5-------5----5----8-------5----5----|--1-------1--1--1-------1-------1-----|
E|-------------------------------------|--------------------------------------|

[Verse 2]
G|-------------------------------------|--------------------------------------|
D|-------------------------------------|--------------------------------------|
A|-------------------------------------|--------------------------------------|
E|-3-3----3-3-3----3-3-3----3-3-3----3-|-3-3----3-3-3----3-3-3----3-3-3----3--|

G|-------------------------------------|--------------------------------------|
D|-------------------------------------|--------------------------------------|
A|-------------------------------------|-1---1---1-1-1-1--3--3---3-3-3-3------|
E|-0-0----0-0-0----0-1-1----1-1-1----1-|--------------------------------------|

G|-------------------------------------|--------------------------------------|
D|-------------------------------------|--------------------------------------|
A|-------------------------------------|--------------------------------------|
E|-3-3----3-3-3----3-3-3----3-3-3----3-|-3-3----3-3-3----3-3-3----3-3-3----3--|

G|-------------------------------------|--------------------------------------|
D|-------------------------------------|--------------------------------------|
A|-------------------------------------|-1---1---1-1-1-1--3--3---3-3-3-3------|
E|-0-0----0-0-0----0-1-1----1-1-1----1-|--------------------------------------|

[Chorus]
G|-------------------------------------|--------------------------------------|
D|-3-------3----3----5-------3----3----|--------------------------------------|
A|-------------------------------------|--3-------3--3--3---5---3---5---3-----|
E|-------------------------------------|--------------------------------------|

G|-------------------------------------|--------------------------------------|
D|-------------------------------------|--------------------3-------3---------|
A|-5-------5----5----8-------5----5----|--1-------1--1--1-------1-------1-----|
E|-------------------------------------|--------------------------------------|

G|-------------------------------------|--------------------------------------|
D|-3-------3----3----5-------3----3----|--------------------------------------|
A|-------------------------------------|--3-------3--3--3---5---3---5---3-----|
E|-------------------------------------|--------------------------------------|

G|-------------------------------------|--------------------------------------|
D|-------------------------------------|--------------------3-------3---------|
A|-5-------5----5----8-------5----5----|--1-------1--1--1-------1-------1-----|
E|-------------------------------------|--------------------------------------|

[Bridge]
G|-------------------------------------|--------------------------------------|
D|-------------------------------------|--------------------------------------|
A|-3-------3----------3---3---3---3----|-3---------3---------3---3---3---3----|
E|-------------------------------------|--------------------------------------|

G|-------------------------------------|--------------------------------------|
D|-------------------------------------|-3---------3---------3---3---3---3----|
A|-1-------1----------1---1---1---1----|--------------------------------------|
E|-------------------------------------|--------------------------------------|

[Solo]
G|-------------------------------------|--------------------------------------|
D|-3---------------3---5-------------5-|-7------7--5---------7----------------|
A|-------------------------------------|--------------------------------------|
E|-------------------------------------|--------------------------------------|

G|-------------------------------------|--------------------------------------|
D|-3---------------3---5-------------5-|--------------------------------------|
A|-------------------------------------|-5------5--1---------5----------------|
E|-------------------------------------|--------------------------------------|

[Chorus]
G|-------------------------------------|--------------------------------------|
D|-3-----------------------------------|--------------------------------------|
A|-------------------------------------|--3-----------------------------------|
E|-------------------------------------|--------------------------------------|

G|-------------------------------------|--------------------------------------|
D|-------------------------------------|--------------------------------------|
A|-5-----------------------------------|--1-----------------------------------|
E|-------------------------------------|--------------------------------------|

G|-------------------------------------|--------------------------------------|
D|-3-----------------------------------|--------------------------------------|
A|-------------------------------------|--3-----------------------------------|
E|-------------------------------------|--------------------------------------|

G|-------------------------------------|--------------------------------------|
D|-------------------------------------|--------------------------------------|
A|-5-----------------------------------|--1-----------------------------------|
E|-------------------------------------|--------------------------------------|

[Chorus]
G|-------------------------------------|--------------------------------------|
D|--3---3---3---3---3---3---3---3------|--------------------------------------|
A|-------------------------------------|--3---3---3---3---3---3---3---3-------|
E|-------------------------------------|--------------------------------------|

G|-------------------------------------|--------------------------------------|
D|-------------------------------------|--------------------------------------|
A|--5---5---5---5---5---5---5---5------|--1---1---1---1---1---1---1---1-------|
E|-------------------------------------|--------------------------------------|

G|-------------------------------------|--------------------------------------|
D|--3---3---3---3---3---3---3---3------|--------------------------------------|
A|-------------------------------------|--3---3---3---3---3---3---3---3-------|
E|-------------------------------------|--------------------------------------|

G|-------------------------------------|--------------------------------------|
D|-------------------------------------|--------------------------------------|
A|--5---5---5---5---5---5---5---5------|--1---1---1---1---1---1---1---1-------|
E|-------------------------------------|--------------------------------------|

[Chorus]
G|-------------------------------------|--------------------------------------|
D|-3-------3----3----5-------3----3----|--------------------------------------|
A|-------------------------------------|--3-------3--3--3---5---3---5---3-----|
E|-------------------------------------|--------------------------------------|

G|-------------------------------------|--------------------------------------|
D|-------------------------------------|--------------------3-------3---------|
A|-5-------5----5----8-------5----5----|--1-------1--1--1-------1-------1-----|
E|-------------------------------------|--------------------------------------|

G|-------------------------------------|--------------------------------------|
D|-3-------3----3----5-------3----3----|--------------------------------------|
A|-------------------------------------|--3-------3--3--3---5---3---5---3-----|
E|-------------------------------------|--------------------------------------|

G|-------------------------------------|--------------------------------------|
D|-------------------------------------|--------------------3-------3---------|
A|-5-------5----5----8-------5----5----|--1-------1--1--1-------1-------1-----|
E|-------------------------------------|--------------------------------------|

[Chorus]
G|-------------------------------------|--------------------------------------|
D|-3-----------------------------------|--------------------------------------|
A|-------------------------------------|--------------------------------------|
E|-------------------------------------|--------------------------------------|

G|-------------------------------------|--------------------------------------|
D|-------------------------------------|--------------------3-------3---------|
A|-5-------5----5----8-------5----5----|--1-------1--1--1-------1-------1-----|
E|-------------------------------------|--------------------------------------|

G|-------------------------------------|--------------------------------------|
D|-3-------3----3----5-------3----3----|--------------------------------------|
A|-------------------------------------|--3-------3--3--3---5---3---5---3-----|
E|-------------------------------------|--------------------------------------|

G|-------------------------------------|--------------------------------------|
D|-------------------------------------|--------------------3-------3---------|
A|-5-------5----5----8-------5----5----|--1-------1--1--1-------1-------1-----|
E|-------------------------------------|--------------------------------------|

[Outro]
G|---------------------------------------------------------------------------|
D|-3-------------------------------------------------------------------------|
A|---------------------------------------------------------------------------|
E|---------------------------------------------------------------------------|

            
            
Suggest correction
Creating personal tab
Creating personal tab
You can edit any tab online and save it as your Personal.

You can edit, replace or remove any tab part or add personal notes – all changes will be seen only by you.

Personal tabs can be accessed anytime from any device, even offline.
Learn more »
Give kudos to tab author, rate the tab!
1 2 3 4 5
comments
print report bad tab
guest
You may want to rate the tab now too:
select rating
Wanna post a correction for this tab? Suggest correction