Oops, an error
Loading. Please wait.

Leave This Island tab

10 views 1 this week
no commentswrite comment
1 2 3 4 5
3 more votes to show rating
add to favorites
×
Save as Personal and add changes to this tab that will be seen only by you. Learn more ›
×
You can save this tab as Personal to edit and correct it or add notes. All changes will be seen only by you. Learn more »
launch autoscroll
font size
0
reset
how to read this tab
guitar tuner
edit
Autoscroll
slow
fast
+/-
esc
set tempo
stop
Artist: Maxïmo Park
Song: Leave This Island
From the album: Too Much Information (2014)
Tabbed by egg-marteeni
18th July 2017


[Pre-Chorus]

     "Are you gonna tell me why..."
  e|----------6----|----------6----|------8--------|------8--------|
  B|------8--------|------8--------|---------10----|---------10----|
  G|--7------------|--7------------|--10-----------|--10-----------|
  D|---------------|---------------|---------------|---------------|
  A|---------------|---------------|---------------|---------------| (x2)
  E|---------------|---------------|---------------|---------------|


[Chorus]

     "Let me know, when you want to leave this island"
  e|-----10--8------------------------|
  B|--8--------11--10--8--10--11--8---|
  G|----------------------------------|
  D|----------------------------------|
  A|----------------------------------| (x4)
  E|----------------------------------|


[Bridge]

     "I'll stand up for you"        "I'll stand up for you"        "I'll stand up for you"
  e|------------------------------|------------------------------|------------------------------|
  B|------------------------------|-------------------------8~---|-----------10--8--10--11--8---|
  G|------------------------------|------------------------------|------------------------------|
  D|------------------------------|------------------------------|------------------------------|
  A|------------------------------|------------------------------|------------------------------|
  E|------------------------------|------------------------------|------------------------------|

  e|------------------------------|------------------------------|------------------------------|
  B|-----------------10~-----8~---|-----------10--8--10--11--8---|------------------------10~---|
  G|------------------------------|------------------------------|------------------------------|
  D|------------------------------|------------------------------|------------------------------|
  A|------------------------------|------------------------------|------------------------------|
  E|------------------------------|------------------------------|------------------------------|


[Outro]

     "I will act as a semaphore..."
  e|-----10--8------------------------|
  B|--8--------11--10--8--10--11--8---|
  G|----------------------------------|
  D|----------------------------------|
  A|----------------------------------| (x12)
  E|----------------------------------|


[Bridge]

     "I'll stand up for you"        "I'll stand up for you"        
  e|------------------------------|------------------------------|
  B|-----------10--8--10--11--8---|-----------------10~-----8~---|
  G|------------------------------|------------------------------|
  D|------------------------------|------------------------------|
  A|------------------------------|------------------------------|
  E|------------------------------|------------------------------|

     "When you want to leave..."    "When you want to hear my..."
  e|------------------------------|------------------------------|
  B|-----------10--8--10--11--8---|------------------------------|
  G|------------------------------|------------------------------|
  D|------------------------------|------------------------------|
  A|------------------------------|------------------------------|
  E|------------------------------|------------------------------|


************************************

| ~  vibrato

************************************

            
            
Suggest correction
Creating personal tab
Creating personal tab
You can edit any tab online and save it as your Personal.

You can edit, replace or remove any tab part or add personal notes – all changes will be seen only by you.

Personal tabs can be accessed anytime from any device, even offline.
Learn more »
Give kudos to tab author, rate the tab!
1 2 3 4 5
comments
print report bad tab
guest
You may want to rate the tab now too:
select rating
Wanna post a correction for this tab? Suggest correction