Oops, an error
Loading. Please wait.

Dummy Head tab

by
37 views 3 this week
no commentswrite comment
1 2 3 4 5
3 more votes to show rating
add to favorites
×
Save as Personal and add changes to this tab that will be seen only by you. Learn more ›
×
You can save this tab as Personal to edit and correct it or add notes. All changes will be seen only by you. Learn more »
launch autoscroll
font size
0
reset
how to read this tab
guitar tuner
edit
Autoscroll
slow
fast
+/-
esc
set tempo
stop
Song: Dumy head
Artist: MØ


[Intro]
e|----15-15-15--------------------------------------|
B|-18----------18---15----15-18-15h18p15------------|
G|---------------------17----------------17---------| (x4)
D|--------------------------------------------------|
A|--------------------------------------------------|
E|--------------------------------------------------|


[Verse 1]
N.C.
Under the sun

I was born lucky
                     Fill
Raised by a water gun

Spot on my body

A life on rollerblades

Did you know?
                                Fill
That songs from the gutter will lead your soul

Fill:
e|-15-15-15-15-15-15-15-15----|
B|----------------------------|
G|----------------------------|
D|----------------------------|
A|----------------------------|
E|----------------------------|


[Pre-Chorus]
N.C.
Oh, oh, Lord, feed my belief
Let the war in my head go
'Cause I never ever really wanna know


[Chorus]
N.C.
Nothing to do

The world is boring, and I'm so lonely

e|-------------------|--10-10-10-10-------|--10-10-10-10----------------------------|
B|-12-12-12-12-10-12-|--------------13----|--------------13------10-10-11-10--------|
G|-------------------|-----------------12-|-----------------12---------------12-10--|
D|-------------------|--------------------|-----------------------------------------|
A|-------------------|--------------------|-----------------------------------------|
E|-------------------|--------------------|-----------------------------------------|
   Nothing to..           do.. dummy head, bikini daze.. Life is a daydream, we're dead anyway


e|----15-15-15--------------------------------------|
B|-18----------18---15----15-18-15h18p15------------|
G|---------------------17----------------17---------| (X4)
D|--------------------------------------------------|
A|--------------------------------------------------|
E|--------------------------------------------------|


[Verse 2]
N.C.
You're like a fire, burns in my alley
                              Fill
Don't know how we get there, but I wanna marry

A guy on rollerblades

Did you know?
                           Fill
As pure as the sky, as the lights in my soul

Fill:
e|-15-15-15-15-15-15-15-15----|
B|----------------------------|
G|----------------------------|
D|----------------------------|
A|----------------------------|
E|----------------------------|


[Pre-Chorus]
N.C.
Oh, oh, Lord feed our beliefs
Let the pray fuck go on go
We never ever really wanna know


[Chorus]
N.C.
Nothing to do
The world is boring, and I'm so lonely

e|-------------------|--10-10-10-10-------|--10-10-10-10----------------------------|
B|-12-12-12-12-10-12-|--------------13----|--------------13------10-10-11-10--------|
G|-------------------|-----------------12-|-----------------12---------------12-10--|
D|-------------------|--------------------|-----------------------------------------|
A|-------------------|--------------------|-----------------------------------------|
E|-------------------|--------------------|-----------------------------------------|
   Nothing to..           do.. dummy head, bikini daze.. Life is a daydream, we're dead anyway


[Bridge]

e|-------------------|--10-10-10-10-------|--10-10-10-10----------------------------|
B|-12-12-12-12-10-12-|--------------13----|--------------13------10-10-11-10--------|
G|-------------------|-----------------12-|-----------------12---------------12-10--|
D|-------------------|--------------------|-----------------------------------------|
A|-------------------|--------------------|-----------------------------------------|
E|-------------------|--------------------|-----------------------------------------|


e|--------------------|---10-10-10-10---------|--10-10-10-10----------------------------|
B|-12-12-12-12-10-12--|---------------13------|--------------13------10-10-11-10--------|
G|--------------------|------------------12---|-----------------12---------------12-10--|
D|--------------------|-----------------------|-----------------------------------------|
A|--------------------|-----------------------|-----------------------------------------|
E|--------------------|-----------------------|-----------------------------------------|
As the sun goes down.. I dream of leaving town  Maybe i will tomorrow  oh, when the darkness arrives


[Chorus]

e|------------------------------|
B|------------------------------|
G|--12--8---10-------15---------|
D|--12--8---10--8----15---------|
A|--10--6---8---8----13---------|
E|--------------6---------------|
    G   Eb  F   Bb  Bb2


G  Eb   F  Bb
Nothing to do
G   Eb                  F       Bb
The world is boring, and I'm so lonely
G  Eb   F  Bb2
Nothing to do
G   Eb        N.C.               Bb
The world is boring, and I'm so lonely


(in this part sound the chords and the arrangement*)
G  Eb   F  Bb 
Nothing to do
G           Eb
Dummy head, bikini daze
F                  Bb
Life is a daydream, we're dead anyway


*
e|-------------------|--10-10-10-10-------|--10-10-10-10----------------------------|
B|-12-12-12-12-10-12-|--------------13----|--------------13------10-10-11-10--------|
G|-------------------|-----------------12-|-----------------12---------------12-10--|
D|-------------------|--------------------|-----------------------------------------|
A|-------------------|--------------------|-----------------------------------------|
E|-------------------|--------------------|-----------------------------------------|


[Outro]

e|----15-15-15--------------------------------------|
B|-18----------18---15----15-18-15h18p15------------|
G|---------------------17----------------17---------| (X8)
D|--------------------------------------------------|
A|--------------------------------------------------|
E|--------------------------------------------------|


*********************************** 
 
| h hammer-on
| p pull-off
| N.C No chords

***********************************

            
            
Suggest correction
Creating personal tab
Creating personal tab
You can edit any tab online and save it as your Personal.

You can edit, replace or remove any tab part or add personal notes – all changes will be seen only by you.

Personal tabs can be accessed anytime from any device, even offline.
Learn more »
Give kudos to tab author, rate the tab!
1 2 3 4 5
comments
print report bad tab
guest
You may want to rate the tab now too:
select rating
Wanna post a correction for this tab? Suggest correction