Oops, an error
Loading. Please wait.

En Oo Kuullut Mitään tab

10 views 1 this week
no commentswrite comment
1 2 3 4 5
2 more votes to show rating
add to favorites
×
Save as Personal and add changes to this tab that will be seen only by you. Learn more ›
×
You can save this tab as Personal to edit and correct it or add notes. All changes will be seen only by you. Learn more »
launch autoscroll
font size
0
reset
how to read this tab
guitar tuner
edit
Autoscroll
slow
fast
+/-
esc
set tempo
stop
Artist: Kolmas Nainen
Album: Onnen Oikotiellä (1994)
Song: En Oo Kuullut Mitään

Tuning: Standard (EADGBe)

If you are playing alone without a band, playing Em instead of the B5 at the start of the Chorus sounds
better.

[Intro]
(Guitar 1)
   1  &  2  &  3  &  4  &  | 1  &  2  &  3  &  4  &  | 1  &  2  &  3  &  4  &  | 1  &  2  &  3  &  4  &  |
   Em                                                  G                                  
e|-------------------------|-------------------------|-------------------------|-------------------------|
B|-------------------------|-------------------------|-------------------------|-------------------------|
G|-12/9-----9--------------|-------------------------|-------------------------|-------------------------|
D|-------------------------|-------------------------|-7-/9-----9--------------|-------------------------|
A|-10/7-----7--------------|-------------------------|-------------------------|-------------------------|
E|-------------------------|-------------------------|-5-/7-----7--------------|-------------------------|

(Guitar 2)
   1  &  2  &  3  &  4  &  | 1  &  2  &  3  &  4  &  | 1  &  2  &  3  &  4  &  | 1  &  2  &  3  &  4  &  |
e|-0-----------------------|-------------------------|-------------------------|-------------------------|
B|-0-----------------------|-------------------------|-3-----------------------|-------------------------|
G|-0-----------------------|-------------0-----------|-0-----------------------|-------------0-----------|
D|-2-----------------------|----2--------------------|-0-----------------------|----0--------------------|
A|-2-----------------------|-------------------------|-2-----------------------|-------------------------|
E|-0-----------------------|-------------------------|-3-----------------------|-------------------------|

(Guitar 1)
   1  &  2  &  3  &  4  &  | 1  &  2  &  3  &  4  &  | 1  &  2  &  3  &  4  &  | 1  &  2  &  3  &  4  &  |
   C                                                   A7
e|-------------------------|-------------------------|-------------------------|-------------------------|
B|-------------------------|-------------------------|-------------------------|-------------------------|
G|-12/9-----9-----x--9-----|-------------------------|-------------------------|-------------------------|
D|-------------------------|-------------------------|-7/9---x--7/9---x--7-----|-------------------------|
A|-10/7-----7-----x--7-----|-------------------------|-------------------------|-------------------------|
E|-------------------------|-------------------------|-5/7---x--5/7---x--5-----|-------------------------|
 
(Guitar 2)
   1  &  2  &  3  &  4  &  | 1  &  2  &  3  &  4  &  | 1  &  2  &  3  &  4  &  | 1  &  2  &  3  &  4  &  |
e|-0-----------------------|-------------------------|-0-----------------------|-------------------------|
B|-1-----------------------|-------------------------|-2-----------------------|-------------------------|
G|-0-----------------------|-------------0-----------|-0-----------------------|-------------------------|
D|-2-----------------------|----2--------------2-----|-2-----------------------|-------------------------|
A|-3-----------------------|-------------------------|-0-----------------------|-------------------------|
E|-------------------------|-------------------------|-------------------------|-------------------------|

(Guitar 1 & 2)
   1  &  2  &  3  &  4  &  | 1  &  2  &  3  &  4  &  |
   Em
e|-0-----------------------|-------------------------|
B|-0-----------------------|-------------------------|
G|-0-----------------------|-------------------------|
D|-2-----------------------|-------------------------|
A|-2-----------------------|-------------------------|
E|-0-----------------------|-------------------------|




[Verse] x3 (Guitar 2 plays chords like in Intro, on last repeat Guitar 2 plays the two notes indicated 
instead of the usual two middle strings)

   1  &  2  &  3  &  4  &  | 1  &  2  &  3  &  4  &  | 1  &  2  &  3  &  4  &  | 1  &  2  &  3  &  4  &  |
   Em                                                  G
e|-------------------------|-------------------------|-------------------0-----|-------------------------|
B|----------5--------------|-------------------------|----------5--------------|-------------------------|
G|-4-----------------4-----|-------------------------|/7-----------------------|-------------------------|
D|-------------------------|-------------------------|-------------------------|-------------------------|
A|-------------------------|-------------------------|-------------------------|-------------------------|
E|-------------------------|-------------------------|-------------------------|-------------------------|
   Viime   yönä          naapurissa                    vaimo     hakattiin                         Siellä
   Levotonta           koiranunta             meillä   nukuttiin                                     Eikä
   Yöpaidassaan             tytär         hiipi        rappukäytävään                             Se meni

   1  &  2  &  3  &  4  &  | 1  &  2  &  3  &  4  &  | 1  &  2  &  3  &  4  &  | 1  &  2  &  3  &  4  &  |
   C                                                   A7                       (Guitar 2 on last repeat)
e|----------0--------------|-------------------------|-------------------7-----|-------------3-----------|
B|-------------------8-----|-------------------------|-10----------------------|----2--------------------|
G|/9-----------------------|-------------------------|----------9--------------|-------------------------|
D|-------------------------|-------------------------|-------------------------|-------------------------|
A|-------------------------|-------------------------|-------------------------|-------------------------|
E|-------------------------|-------------------------|-------------------------|-------------------------|
   vaimokulta          piestiin                        henkihieveriin
   kuultu      mitään                             Ei   kuultu        mitään
   pommisuojaan                                        Suojaan   isältään

   1  &  2  &  3  &  4  &  | 1  &  2  &  3  &  4  &  |
   D
e|-------------------10~---|-------------------------|
B|----------10-------10~---|-------------------------|
G|-11-------11-------11~---|-------------------------|   (Play after last repeat, leading into Chorus,
D|-12-------12-------12----|-------------------------|    Guitar 2 plays open D)
A|-12-------12-------------|-------------------------|
E|-10----------------------|-------------------------|
                                         (En   oo 

[Chorus]
(Guitar 1)
   1  &  2  &  3  &  4  &  | 1  &  2  &  3  &  4  &  | 1  &  2  &  3  &  4  &  | 1  &  2  &  3  &  4  &  |
   B5                                                  C                         
e|-------------------------|-------------------------|-------------------------|-------------------------|
B|-------------------------|-------------------------|-------------------------|-------------------------|
G|-------------------------|-------------------------|-9-----9-----11----11----|-12----12----11----11----|
D|-9-----9-----9-----9-----|-9-----9-----9-----9-----|-10----10----10----10----|-10----10----10----10----|
A|-9-----9-----9-----9-----|-9-----9-----9-----9-----|-------------------------|-------------------------|
E|-------------------------|-------------------------|-------------------------|-------------------------|

(Guitar 2)
   1  &  2  &  3  &  4  &  | 1  &  2  &  3  &  4  &  | 1  &  2  &  3  &  4  &  | 1  &  2  &  3  &  4  &  |
e|-------------------------|-------------------------|-------------------------|-------------------------|
B|-------------------------|-------------------------|-------------------------|-------------------------|
G|-------0-----------------|-0-----------------------|-------0-----------------|-0-----------------------|
D|----------------4--------|----------4--------------|----------------4--------|----------4--------------|
A|-2-----------------------|-------------------0--2--|-3-----------------------|-------------------2--3--|
E|-------------------------|-------------------------|-------------------------|-------------------------|
   kuullut)                  Mä  en oo   kuullut      mitään  
                                               (Jos   multa     kysytään)          
                                                     
(Guitar 1)                                           
   1  &  2  &  3  &  4  &  | 1  &  2  &  3  &  4  &  | 1  &  2  &  3  &  4  &  | 1  &  2  &  3  &  4  &  |
   D                                                   C
e|-------------------------|-------------------------|-------------------------|-------------------------|
B|-------------------------|-------------------------|-------------------------|-------------------------|
G|-11----11----12----12----|-14----14----12----12----|-9-----9-----9-----9-----|-9-----9-----9-----9-----|
D|-12----12----12----12----|-12----12----12----12----|-10----10----10----10----|-10----10----10----10----|
A|-------------------------|-------------------------|-------------------------|-------------------------|
E|-------------------------|-------------------------|-------------------------|-------------------------|

(Guitar 2)
   1  &  2  &  3  &  4  &  | 1  &  2  &  3  &  4  &  | 1  &  2  &  3  &  4  &  | 1  &  2  &  3  &  4  &  |
e|-------------------------|-------------------------|-------------------------|-------------------------|
B|-------------------------|-------------------------|-------------------------|-------------------------|
G|-------0-----------------|-0-----------------------|-------0-----------------|-0-----------------------|
D|----------------4--------|----------4--------------|----------------4--------|----------4--------------|
A|-5-----------------------|-------------------5-----|-3-----------------------|-------------2--0--------|
E|-------------------------|-------------------------|-------------------------|-------------------3--2--|
           En  ala       sekaantumaan                  toisten   elämään                    (En   oo

(Guitar 1)
   1  &  2  &  3  &  4  &  | 1  &  2  &  3  &  4  &  | 1  &  2  &  3  &  4  &  | 1  &  2  &  3  &  4  &  |
   Em                                                  C                         
e|-------------------------|-------------------------|-------------------------|-------------------------|
B|-------------------------|-------------------------|-------------------------|-------------------------|
G|-------------------------|-------------------------|-9-----9-----11----11----|-12----12----11----11----|
D|-9-----9-----9-----9-----|-9-----9-----9-----9-----|-10----10----10----10----|-10----10----10----10----|
A|-10----10----10----10----|-10----10----10----10----|-------------------------|-------------------------|
E|-------------------------|-------------------------|-------------------------|-------------------------|   

(Guitar 2)
   1  &  2  &  3  &  4  &  | 1  &  2  &  3  &  4  &  | 1  &  2  &  3  &  4  &  | 1  &  2  &  3  &  4  &  |
e|-------------------------|-------------------------|-------------------------|-------------------------|
B|-------------------------|-------------------------|-------------------------|-------------------------|
G|-------0-----------------|-0-----------------------|-------0-----------------|-0-----------------------|
D|----------------4--------|----------4--------------|----------------4--------|----------4--------------|
A|-------------------------|-------------------------|-3-----------------------|-------------------3-----|
E|-0-----------------------|-------------------0-----|-------------------------|-------------------------|
   kuullut)                  Mä  en oo   kuullut      mitään  
                                               (Jos   multa     kysytään)          
                                                     
(Guitar 1)                                           
   1  &  2  &  3  &  4  &  | 1  &  2  &  3  &  4  &  | 1  &  2  &  3  &  4  &  | 1  &  2  &  3  &  4  &  |
   D                                                   C
e|-------------------------|-------------------------|-------------------------|-------------------------|
B|-------------------------|-------------------------|-------------------------|-------------------------|
G|-11----11----12----12----|-14----14----12----12----|-9--------9--------9-----|-------------------------|
D|-12----12----12----12----|-12----12----12----12----|-10-------10-------10----|-------------------------|
A|-------------------------|-------------------------|-10-------10-------10----|-------------------------|
E|-------------------------|-------------------------|-8--------8--------8-----|-------------------------|

(Guitar 2)
   1  &  2  &  3  &  4  &  | 1  &  2  &  3  &  4  &  | 1  &  2  &  3  &  4  &  | 1  &  2  &  3  &  4  &  |
e|-------------------------|-------------------------|-------------------------|-------------------------|
B|-------------------------|-------------------------|-------------------------|-------------------------|
G|-------0-----------------|-0-----------------------|-------------------------|-------------------------|
D|----------------4--------|----------4--------------|---------/4-------/9-----|-------------------------|
A|-5-----------------------|-------------------5-----|-3-----------------------|-------------------------|
E|-------------------------|-------------------------|-------------------------|-------------------------|
            Jokainen          kai   pitää              huolta    itsestään                

[Interlude] (Guitar 2 plays Chords like in Intro & Verse)
   1  &  2  &  3  &  4  &  | 1  &  2  &  3  &  4  &  | 1  &  2  &  3  &  4  &  | 1  &  2  &  3  &  4  &  |
   Em                                                  G                                  
e|-------------------------|-------------------------|-------------------------|-------------------------|
B|-------------------------|-------------------------|-------------------------|-------------------------|
G|-12/9-----9--------------|-------------------------|-------------------------|-------------------------|
D|-------------------------|-------------------------|-7-/9-----9--------------|-------------------------|
A|-10/7-----7--------------|-------------------------|-------------------------|-------------------------|
E|-------------------------|-------------------------|-5-/7-----7--------------|-------------------------|

   1  &  2  &  3  &  4  &  | 1  &  2  &  3  &  4  &  | 1  &  2  &  3  &  4  &  | 1  &  2  &  3  &  4  &  |
   C                                                   A7
e|-------------------------|-------------------------|-------------------------|-------------------------|
B|-------------------------|-------------------------|-------------------------|-------------------------|
G|-12/9-----9-----x--9-----|-------------------------|-------------------------|-------------------------|
D|-------------------------|-------------------------|-7/9---x--7/9---x--7-----|-------------------------|
A|-10/7-----7-----x--7-----|-------------------------|-------------------------|-------------------------|
E|-------------------------|-------------------------|-5/7---x--5/7---x--5-----|-------------------------|
 

[Verse] x2 (play just like first verse)

   1  &  2  &  3  &  4  &  | 1  &  2  &  3  &  4  &  | 1  &  2  &  3  &  4  &  | 1  &  2  &  3  &  4  &  |
   Em                                                  G
e|-------------------------|-------------------------|-------------------0-----|-------------------------|
B|----------5--------------|-------------------------|----------5--------------|-------------------------|
G|-4-----------------4-----|-------------------------|/7-----------------------|-------------------------|
D|-------------------------|-------------------------|-------------------------|-------------------------|
A|-------------------------|-------------------------|-------------------------|-------------------------|
E|-------------------------|-------------------------|-------------------------|-------------------------|
  Verestävin              silmin         lähdin        töihin      virastoon                      Jossa
  Asioita               aakkosjärjestykseen                      laitetaan                          Ja
   1  &  2  &  3  &  4  &  | 1  &  2  &  3  &  4  &  | 1  &  2  &  3  &  4  &  | 1  &  2  &  3  &  4  &  |
   C                                                   A7                       (Guitar 2 on last repeat)
e|----------0--------------|-------------------------|-------------------7-----|-------------3-----------|
B|-------------------8-----|-------------------------|-10----------------------|----2--------------------|
G|/9-----------------------|-------------------------|----------9--------------|-------------------------|
D|-------------------------|-------------------------|-------------------------|-------------------------|
A|-------------------------|-------------------------|-------------------------|-------------------------|
E|-------------------------|-------------------------|-------------------------|-------------------------|
   toistaiseksi              verovaroin               työllistetty           oon
   jokainen         on       yhtälailla               kade      paikastaan

   1  &  2  &  3  &  4  &  | 1  &  2  &  3  &  4  &  |
   D
e|-------------------10~---|-------------------------|
B|----------10-------10~---|-------------------------|
G|-11-------11-------11~---|-------------------------|   (Play after last repeat, leading into Chorus,
D|-12-------12-------12----|-------------------------|    Guitar 2 plays open D)
A|-12-------12-------------|-------------------------|
E|-10----------------------|-------------------------|
                                         (En   oo 

[Chorus]
(Guitar 1)
   1  &  2  &  3  &  4  &  | 1  &  2  &  3  &  4  &  | 1  &  2  &  3  &  4  &  | 1  &  2  &  3  &  4  &  |
   B5                                                  C                         
e|-------------------------|-------------------------|-------------------------|-------------------------|
B|-------------------------|-------------------------|-------------------------|-------------------------|
G|-------------------------|-------------------------|-9-----9-----11----11----|-12----12----11----11----|
D|-9-----9-----9-----9-----|-9-----9-----9-----9-----|-10----10----10----10----|-10----10----10----10----|
A|-9-----9-----9-----9-----|-9-----9-----9-----9-----|-------------------------|-------------------------|
E|-------------------------|-------------------------|-------------------------|-------------------------|

(Guitar 2)
   1  &  2  &  3  &  4  &  | 1  &  2  &  3  &  4  &  | 1  &  2  &  3  &  4  &  | 1  &  2  &  3  &  4  &  |
e|-------------------------|-------------------------|-------------------------|-------------------------|
B|-------------------------|-------------------------|-------------------------|-------------------------|
G|-------0-----------------|-0-----------------------|-------0-----------------|-0-----------------------|
D|----------------4--------|----------4--------------|----------------4--------|----------4--------------|
A|-2-----------------------|-------------------0--2--|-3-----------------------|-------------------2--3--|
E|-------------------------|-------------------------|-------------------------|-------------------------|
   kuullut)                  Mä  en oo   kuullut      mitään  
                                               (Jos   multa     kysytään)          
                                                     
(Guitar 1)                                           
   1  &  2  &  3  &  4  &  | 1  &  2  &  3  &  4  &  | 1  &  2  &  3  &  4  &  | 1  &  2  &  3  &  4  &  |
   D                                                   C
e|-------------------------|-------------------------|-------------------------|-------------------------|
B|-------------------------|-------------------------|-------------------------|-------------------------|
G|-11----11----12----12----|-14----14----12----12----|-9-----9-----9-----9-----|-9-----9-----9-----9-----|
D|-12----12----12----12----|-12----12----12----12----|-10----10----10----10----|-10----10----10----10----|
A|-------------------------|-------------------------|-------------------------|-------------------------|
E|-------------------------|-------------------------|-------------------------|-------------------------|

(Guitar 2)
   1  &  2  &  3  &  4  &  | 1  &  2  &  3  &  4  &  | 1  &  2  &  3  &  4  &  | 1  &  2  &  3  &  4  &  |
e|-------------------------|-------------------------|-------------------------|-------------------------|
B|-------------------------|-------------------------|-------------------------|-------------------------|
G|-------0-----------------|-0-----------------------|-------0-----------------|-0-----------------------|
D|----------------4--------|----------4--------------|----------------4--------|----------4--------------|
A|-5-----------------------|-------------------5-----|-3-----------------------|-------------2--0--------|
E|-------------------------|-------------------------|-------------------------|-------------------3--2--|
           En  ala       sekaantumaan                  toisten   elämään                    (En   oo

(Guitar 1)
   1  &  2  &  3  &  4  &  | 1  &  2  &  3  &  4  &  | 1  &  2  &  3  &  4  &  | 1  &  2  &  3  &  4  &  |
   Em                                                  C                         
e|-------------------------|-------------------------|-------------------------|-------------------------|
B|-------------------------|-------------------------|-------------------------|-------------------------|
G|-------------------------|-------------------------|-9-----9-----11----11----|-12----12----11----11----|
D|-9-----9-----9-----9-----|-9-----9-----9-----9-----|-10----10----10----10----|-10----10----10----10----|
A|-10----10----10----10----|-10----10----10----10----|-------------------------|-------------------------|
E|-------------------------|-------------------------|-------------------------|-------------------------|   

(Guitar 2)
   1  &  2  &  3  &  4  &  | 1  &  2  &  3  &  4  &  | 1  &  2  &  3  &  4  &  | 1  &  2  &  3  &  4  &  |
e|-------------------------|-------------------------|-------------------------|-------------------------|
B|-------------------------|-------------------------|-------------------------|-------------------------|
G|-------0-----------------|-0-----------------------|-------0-----------------|-0-----------------------|
D|----------------4--------|----------4--------------|----------------4--------|----------4--------------|
A|-------------------------|-------------------------|-3-----------------------|-------------------3-----|
E|-0-----------------------|-------------------0-----|-------------------------|-------------------------|
   kuullut)                  Mä  en oo   kuullut      mitään  
                                               (Jos   multa     kysytään)          
                                                     
(Guitar 1)                                           
   1  &  2  &  3  &  4  &  | 1  &  2  &  3  &  4  &  | 1  &  2  &  3  &  4  &  | 1  &  2  &  3  &  4  &  |
   D                                                   C
e|-------------------------|-------------------------|-------------------------|-------------------------|
B|-------------------------|-------------------------|-------------------------|-------------------------|
G|-11----11----12----12----|-14----14----12----12----|-9--------9--------9-----|-------------------------|
D|-12----12----12----12----|-12----12----12----12----|-10-------10-------10----|-------------------------|
A|-------------------------|-------------------------|-10-------10-------10----|-------------------------|
E|-------------------------|-------------------------|-8--------8--------8-----|-------------------------|

(Guitar 2)
   1  &  2  &  3  &  4  &  | 1  &  2  &  3  &  4  &  | 1  &  2  &  3  &  4  &  | 1  &  2  &  3  &  4  &  |
e|-------------------------|-------------------------|-------------------------|-------------------------|
B|-------------------------|-------------------------|-------------------------|-------------------------|
G|-------0-----------------|-0-----------------------|-------------------------|-------------------------|
D|----------------4--------|----------4--------------|---------/4-------/9-----|-------------------------|
A|-5-----------------------|-------------------5-----|-3-----------------------|-------------------------|
E|-------------------------|-------------------------|-------------------------|-------------------------|
            Jokainen          kai   pitää              huolta    itsestään          

      
[Solo] (Guitar 2 plays Chords)
   1  &  2  &  3  &  4  &  | 1  &  2  &  3  &  4  &  | 1  &  2  &  3  &  4  &  | 1  &  2  &  3  &  4  &  |
   N.C.                                                Em
e|-------------------------|-------------------------|-------------------------|-------------------------|
B|-------------------------|-------------------------|-------------------------|-------------------------|
G|-------------------------|-------------------------|-------------------------|-------------------------|
D|/5--------4--------------|-------------------------|-------------------------|-------------------------|
A|-------------------3-----|-------------------3h5-p3|\2-----------------------|-------------------------|
E|-------------------------|-------------------------|---------0---------------|-----------pb6-r5-p3-h5--|

   1  &  2  &  3  &  4  &  | 1  &  2  &  3  &  4  &  | 1  &  2  &  3  &  4  &  | 1  &  2  &  3  &  4  &  |
   G                                                   C
e|-------------------------|-------------------------|-------------------------|-------------------------|
B|-------------------------|-------------------------|-------------------------|-------------------------|
G|-------------------------|-------------------------|-------------------------|-------------------------|
D|-------------------------|-------------------------|-------------------------|----5--------5-h7-p5-----|
A|-------------------------|-------------------5-h7--|-3--------5--------7-----|-------------------------|
E|-3--------5----/7--3-----|-------------5-h7--------|-------------------------|-------------------------|

   1  &  2  &  3  &  4  &  | 1  &  2  &  3  &  4  &  | 1  &  2  &  3  &  4  &  | 1  &  2  &  3  &  4  &  |
   A7                                                  Em
e|-------------------------|-------------------------|-------------------------|-------------------------|
B|-------------------8-----|-------------8-----8-----|-8-p5-----5-------<8>p5--|----5--------8-p5--------|
G|----------6--------------|----6--------------------|-------------------------|-------------------------|
D|-7--------------7--------|----------7--------------|-------------------------|-------------------------|
A|-------------------------|-------------------------|-------------------------|-------------------------|
E|-------------------------|-------------------------|-------------------------|-------------------------|

   1  &  2  &  3  &  4  &  | 1  &  2  &  3  &  4  &  | 1  &  2  &  3  &  4  &  | 1  &  2  &  3  &  4  &  |
   G                                                   C
e|-------------------------|-------------------------|-------------------------|-------------------------|
B|----8-----8-----------8--|----8-----------8--------|-------8--------8--------|----8--------------8-----|
G|/7-----------------7-----|-------------7-----------|/9--------9-h10----10p9--|----------9-p10----------|
D|-------------------------|-------------------------|-------------------------|-------------------------|
A|-------------------------|-------------------------|-------------------------|-------------------------|
E|-------------------------|-------------------------|-------------------------|-------------------------|

   1  &  2  &  3  &  4  &  | 1  &  2  &  3  &  4  &  | 1  &  2  &  3  &  4  &  | 1  &  2  &  3  &  4  &  |
   A7                                                  D
e|-------9--------9--------|-9--------9--------9-----|/10----------------------|-------------------------|
B|-------------------------|-------------------------|----------10-------8-----|----7--------7-b8-r7-----|
G|/9-----------9--------9--|-------9--------9--------|-------------------------|----------7-----------7--|
D|-------------------------|-------------------------|-------------------------|-------------------------|
A|-------------------------|-------------------------|-------------------------|-------------------------|
E|-------------------------|-------------------------|-------------------------|-------------------------|
                                                                                             (En    oo

[Chorus] (Repeat until fade out)
(Guitar 1)
   1  &  2  &  3  &  4  &  | 1  &  2  &  3  &  4  &  | 1  &  2  &  3  &  4  &  | 1  &  2  &  3  &  4  &  |
   B5                                                  C                         
e|-------------------------|-------------------------|-------------------------|-------------------------|
B|-------------------------|-------------------------|-------------------------|-------------------------|
G|-------------------------|-------------------------|-9-----9-----11----11----|-12----12----11----11----|
D|-9-----9-----9-----9-----|-9-----9-----9-----9-----|-10----10----10----10----|-10----10----10----10----|
A|-9-----9-----9-----9-----|-9-----9-----9-----9-----|-------------------------|-------------------------|
E|-------------------------|-------------------------|-------------------------|-------------------------|

(Guitar 2)
   1  &  2  &  3  &  4  &  | 1  &  2  &  3  &  4  &  | 1  &  2  &  3  &  4  &  | 1  &  2  &  3  &  4  &  |
e|-------------------------|-------------------------|-------------------------|-------------------------|
B|-------------------------|-------------------------|-------------------------|-------------------------|
G|-------0-----------------|-0-----------------------|-------0-----------------|-0-----------------------|
D|----------------4--------|----------4--------------|----------------4--------|----------4--------------|
A|-2-----------------------|-------------------0--2--|-3-----------------------|-------------------2--3--|
E|-------------------------|-------------------------|-------------------------|-------------------------|
   kuullut)                  Mä  en oo   kuullut      mitään  
                                               (Jos   multa     kysytään)          
                                                     
(Guitar 1)                                           
   1  &  2  &  3  &  4  &  | 1  &  2  &  3  &  4  &  | 1  &  2  &  3  &  4  &  | 1  &  2  &  3  &  4  &  |
   D                                                   C
e|-------------------------|-------------------------|-------------------------|-------------------------|
B|-------------------------|-------------------------|-------------------------|-------------------------|
G|-11----11----12----12----|-14----14----12----12----|-9-----9-----9-----9-----|-9-----9-----9-----9-----|
D|-12----12----12----12----|-12----12----12----12----|-10----10----10----10----|-10----10----10----10----|
A|-------------------------|-------------------------|-------------------------|-------------------------|
E|-------------------------|-------------------------|-------------------------|-------------------------|

(Guitar 2)
   1  &  2  &  3  &  4  &  | 1  &  2  &  3  &  4  &  | 1  &  2  &  3  &  4  &  | 1  &  2  &  3  &  4  &  |
e|-------------------------|-------------------------|-------------------------|-------------------------|
B|-------------------------|-------------------------|-------------------------|-------------------------|
G|-------0-----------------|-0-----------------------|-------0-----------------|-0-----------------------|
D|----------------4--------|----------4--------------|----------------4--------|----------4--------------|
A|-5-----------------------|-------------------5-----|-3-----------------------|-------------2--0--------|
E|-------------------------|-------------------------|-------------------------|-------------------3--2--|
           En  ala       sekaantumaan                  toisten   elämään                    (En   oo

(Guitar 1)
   1  &  2  &  3  &  4  &  | 1  &  2  &  3  &  4  &  | 1  &  2  &  3  &  4  &  | 1  &  2  &  3  &  4  &  |
   Em                                                  C                         
e|-------------------------|-------------------------|-------------------------|-------------------------|
B|-------------------------|-------------------------|-------------------------|-------------------------|
G|-------------------------|-------------------------|-9-----9-----11----11----|-12----12----11----11----|
D|-9-----9-----9-----9-----|-9-----9-----9-----9-----|-10----10----10----10----|-10----10----10----10----|
A|-10----10----10----10----|-10----10----10----10----|-------------------------|-------------------------|
E|-------------------------|-------------------------|-------------------------|-------------------------|   

(Guitar 2)
   1  &  2  &  3  &  4  &  | 1  &  2  &  3  &  4  &  | 1  &  2  &  3  &  4  &  | 1  &  2  &  3  &  4  &  |
e|-------------------------|-------------------------|-------------------------|-------------------------|
B|-------------------------|-------------------------|-------------------------|-------------------------|
G|-------0-----------------|-0-----------------------|-------0-----------------|-0-----------------------|
D|----------------4--------|----------4--------------|----------------4--------|----------4--------------|
A|-------------------------|-------------------------|-3-----------------------|-------------------3-----|
E|-0-----------------------|-------------------0-----|-------------------------|-------------------------|
   kuullut)                  Mä  en oo   kuullut      mitään  
                                               (Jos   multa     kysytään)          
                                                     
(Guitar 1)                                           
   1  &  2  &  3  &  4  &  | 1  &  2  &  3  &  4  &  | 1  &  2  &  3  &  4  &  | 1  &  2  &  3  &  4  &  |
   D                                                   C
e|-------------------------|-------------------------|-------------------------|-------------------------|
B|-------------------------|-------------------------|-------------------------|-------------------------|
G|-11----11----12----12----|-14----14----12----12----|-9--------9--------9-----|-------------------------|
D|-12----12----12----12----|-12----12----12----12----|-10-------10-------10----|-------------------------|
A|-------------------------|-------------------------|-10-------10-------10----|-------------------------|
E|-------------------------|-------------------------|-8--------8--------8-----|-------------------------|

(Guitar 2)
   1  &  2  &  3  &  4  &  | 1  &  2  &  3  &  4  &  | 1  &  2  &  3  &  4  &  | 1  &  2  &  3  &  4  &  |
e|-------------------------|-------------------------|-------------------------|-------------------------|
B|-------------------------|-------------------------|-------------------------|-------------------------|
G|-------0-----------------|-0-----------------------|-------0-----------------|-0-----------------------|
D|----------------4--------|----------4--------------|----------------4--------|----------4--------------|
A|-5-----------------------|-------------------5-----|-3-----------------------|--------------------3----|
E|-------------------------|-------------------------|-------------------------|-------------------------|
            Jokainen          kai   pitää              huolta    itsestään                  (En    oo   

Repeat Chorus and fade out


************************************

| x   Dead note
| h   Hammer-on
| p   Pull-off
| r   Release
| b   Bend
| r  Bend release
| pb  Pre-bend
| /   Slide up
| \   Slide down
| <>  Pinch-harmonic

************************************
Suggest correction
Creating personal tab
Creating personal tab
You can edit any tab online and save it as your Personal.

You can edit, replace or remove any tab part or add personal notes – all changes will be seen only by you.

Personal tabs can be accessed anytime from any device, even offline.
Learn more »
Give kudos to tab author, rate the tab!
1 2 3 4 5
comments
print report bad tab
guest
You may want to rate the tab now too:
select rating
Wanna post a correction for this tab? Suggest correction