Oops, an error
Loading. Please wait.

Rádio Pirata chords

by RPM
7 views 3 this week
no commentswrite comment
1 2 3 4 5
3 more votes to show rating
add to favorites
×
Save as Personal and add changes to this tab that will be seen only by you. Learn more ›
×
You can save this tab as Personal to edit and correct it or add notes. All changes will be seen only by you. Learn more »
launch autoscroll
font size
0
reset
transpose
0
reset
display chords
guitar tuner
edit
Autoscroll
slow
fast
+/-
esc
set tempo
stop
Strumming
There is no strumming pattern for this song yet. and get +5 IQ
[Intro]

[Riff]
         B                               E
e|-------11--11--11--11--11--11--11--11--12--12--12--12--12--12--12--12---|
B|---------12--12--12--12--12--12--12--12--12--12--12--12--12--12--12--12-|
G|------------------------------------------------------------------------| 2x
D|------------------------------------------------------------------------|
A|------------------------------------------------------------------------|
E|------------------------------------------------------------------------|

[Verse 1]
B                   E
Abordar navios mercantes
B                                 E
Invadir, pilhar, tomar o que é nosso
   F#                  E
Pirataria nas ondas do rádio
   F#                            E
Havia alguma coisa errada com o rei

[Riff]
         B                               E
e|-------11--11--11--11--11--11--11--11--12--12--12--12--12--12--12--12---|
B|---------12--12--12--12--12--12--12--12--12--12--12--12--12--12--12--12-|
G|------------------------------------------------------------------------| 2x
D|------------------------------------------------------------------------|
A|------------------------------------------------------------------------|
E|------------------------------------------------------------------------|

[verse 2]
B                      E
Preparar a nossa invasão
B                                 E
E fazer justiça com as próprias mãos
   F#                     E
Dinamitar um paiol de bobagens
   F#                        E
E navegar o mar na tranqüilidade

[Chorus]
B         E
Toquem o meu coração
B         E
Façam a revolução

[Interlude]
      F#                     E
Que está no ar, nas ondas do rádio
      F#                  E
No submundo repousa o repúdio
                   B   E B  E
E deve despertar...  ôooo ôoo ôo

[Verse 3]
B                     E
Disputar em cada frequência
B                          E
Um espaço nosso nessa decadência
      F#                                  E
Canções de guerra, quem sabe canções do mar
     F#                      E
Canções de amor ao que vai vingar

[Chorus]
B               E
Toquem o meu coração
B        E
Façam a revolução

[Interlude 2]
      F#                       E
Que está no ar, nas ondas do rádio
      F#                     E
No underground repousa o repúdio
                    B  E  B  E
e deve despertar...

[Riff]
         B                               E
e|-------11--11--11--11--11--11--11--11--12--12--12--12--12--12--12--12---|
B|---------12--12--12--12--12--12--12--12--12--12--12--12--12--12--12--12-|
G|------------------------------------------------------------------------| 2x
D|------------------------------------------------------------------------|
A|------------------------------------------------------------------------|
E|------------------------------------------------------------------------|
Suggest correction
Creating personal tab
Creating personal tab
You can edit any tab online and save it as your Personal.

You can edit, replace or remove any tab part or add personal notes – all changes will be seen only by you.

Personal tabs can be accessed anytime from any device, even offline.
Learn more »
Give kudos to tab author, rate the tab!
1 2 3 4 5
comments
print report bad tab
guest
You may want to rate the tab now too:
select rating
Wanna post a correction for this tab? Suggest correction