Oops, an error
Loading. Please wait.

Midnight Queen bass

version 1
version 1

Whole song

  • The tab for the whole song made by ear, this is th... Show more

Interactive

97 views 3 this week
no commentswrite comment
1 2 3 4 5
3 more votes to show rating
add to favorites
×
Save as Personal and add changes to this tab that will be seen only by you. Learn more ›
×
You can save this tab as Personal to edit and correct it or add notes. All changes will be seen only by you. Learn more »
launch autoscroll
font size
0
reset
guitar tuner
edit
Autoscroll
slow
fast
+/-
esc
set tempo
stop
About this tab version
The tab for the whole song made by ear, this is the most accurate version out there, the rest got it wrong on many parts,enjoy. Was this info helpful? Yes No
Artist : Sarcófago
Album : The Laws Of Scourge
Song : Midnight Queen
Year : 1991
Tuning : DGCF

Intro 1 (after the acoustic part)
                  x4                x4    Or you can play like this                               
|-----------------|-----------------|    F|-----------------|-----------------|   
|-----------------|-----------------|    C|--7--7-----7--7--|--5--5-----5--5--|   
|--0--0-----0--0--|-----------------|    G|-----------------|-----------------|   
|-----------------|--3--3-----3--3--|    D|-----------------|-----------------| 

Intro 2 (also Chorus)                                            

F|-----------------------|--------------------------|  x2
C|-----------------------|--------------------------|
G|-----------------------|-----------------------2--|
D|--0--2--3-----3--2--0--|--0--2--3-----3--2--0-----|

Pre-Verse

F|-----------------------------------------------------------------------------| x1
C|-----------------------------------------------------------------------------|
G|-----------------------------------------------6--6-----------6--6-----------|
D|--0--0--0--0--0--1--1--1--1--1--0--0--0--0--0--------0--0--0--------0--0--0--|

Verse
                                                  1st time          2nd time                   
F|-----------------------------------------------|-----------------|--------------------------------| x2
C|-----------------------------------------------|-----------------|--------------------------------|
G|-----------------------------------------------|-----------------|--6--6-----------6--6-----------|
D|--0--0--0--0--0--1--1--1--1--1--0--0--0--0--0--|--1--1--1--1--1--|--------0--0--0--------0--0--0--|

Break (use legato for the 2-3-2-1 parts)
                                                     1st time            2nd time
F|-----------------------------------------------------------|--------------|
C|-----------------------------------------------3--2-----2--|--3--2-----1--|
G|-----------------2--3--2--1--------------------------3-----|--------3-----|
D|--2--3--2--1--------------------2--3--2--1-----------------|--------------|

Pre-Verse x1
Verse x2

Pre-Chorus (at the end of the verse)

F|--------------------------------|-----------------------------------|
C|--------------------------------|-----------------------------------|
G|--6--6-----------6--6-----------|--4--4-----------2--2-----------0--|
D|--------0--0--0--------0--0--0--|--------0--0--0--------0--0--0-----|

Chorus (Intro 2) x4

Pre-Solo
                           x1                                           1st time       2nd time
F|-----|-----------|--------|  |---------------------------------------|--------------|-----------| x2
C|-----|-----------|--------|  |-----2--3--2-----4--5--4---------------|--------------|-----------|
G|--0--|--3--4--3--|--3--4--|  |--0-----------3-----------0--5--6--5---|--0--3--4--3--|--0--3--4--|
D|-----|-----------|--------|  |---------------------------------------|--------------|-----------|

Solo

F|--------------------------------------------------------| x2
C|--------------------------------------------------------|
G|--2--2--2--2--2--2---0--0---2--2--2--2--2--2---4--5--4--|
D|--------------------------------------------------------|

F|--------------------------------------------------------| x2
C|--------------------------------------------------------|
G|--4--4--4--4--4--4---2--2---4--4--4--4--4--4---6--7--6--|
D|--------------------------------------------------------|
                                          1st time       2nd time
F|---------------------------------------|--------------|-----------| x2
C|-----2--3--2-----4--5--4---------------|--------------|-----------|
G|--0-----------3-----------0--5--6--5---|--0--3--4--3--|--0--3--4--|
D|---------------------------------------|--------------|-----------|

Interlude

F|---------------------------------------------------------------------------|
C|-------7h9--7--5------5-------------5--7--5-----------------4------(4)-----|
G|-------------------7-----7--5---3~------------7--5--3--2~-------2-----(2)--|
D|--0~-----------------------------------------------------------------------|



F|----------7-----7h9--7-----------------------------------------------------|
C|------(9)----9----------9--7--------5-7-5---7/9--7--5---------4----(4)-----|
G|-----------------------------5--3~---------------------3--2~-----2----(2)--|
D|--0~-----------------------------------------------------------------------|


F|-----------------------------------------------------------------------|
C|--------7--5-------5-----------5---7--5----------------4-------(4)-----|
G|---------------7-----7--5--3~-------------7--5--3--2~------2------(2)--|
D|--0~-------------------------------------------------------------------|



F|----------7-----7h9--7----------------------------------------------------------|
C|--------9----9----------9--7--------5-7-5---7/9--7--5--------4----(4)-----------|
G|-----------------------------5--3~---------------------3--2~-----2----(2)-------|
D|--0~-----------------------------------------------------------------------0~---|

The notes that are like "(x)" are very vaguely heared in the song,
so it's the player's choice if they want to play it or not.


Chorus (Intro 2) x4 

and after the 4th time play this

F|-----------|-----|-----|
C|-----------|-----|-----|
G|-----------|-----|-----|
D|--0--2--3--|--2--|--0--|

            
            
Suggest correction
Creating personal tab
Creating personal tab
You can edit any tab online and save it as your Personal.

You can edit, replace or remove any tab part or add personal notes – all changes will be seen only by you.

Personal tabs can be accessed anytime from any device, even offline.
Learn more »
Give kudos to tab author, rate the tab!
1 2 3 4 5
comments
print report bad tab
guest
You may want to rate the tab now too:
select rating
Wanna post a correction for this tab? Suggest correction