Oops, an error
Loading. Please wait.

Crush Kill Destroy bass

94 views 15 this week
no commentswrite comment
1 2 3 4 5
3 more votes to show rating
add to favorites
×
Save as Personal and add changes to this tab that will be seen only by you. Learn more ›
×
You can save this tab as Personal to edit and correct it or add notes. All changes will be seen only by you. Learn more »
launch autoscroll
font size
0
reset
guitar tuner
edit
Autoscroll
slow
fast
+/-
esc
set tempo
stop
Artist : Sarcofago
Album : The Laws Of Scourge
Song : Crush, Kill, Destroy
Year : 1991
Tuning : DGCF

[Intro] (also Chorus)         x3                     x1
F|-----------------------------|--3h2--------2h1--------|
D|-----------------------------|-------3--3-------3--3--| (x4)    
G|-----------------------------|------------------------|      
D|--2--1--1--1--1--1--1--1--1--|------------------------|   

after 4th time you play this
F|-----------|-----------------------|
C|-----------|-----------------------|
G|--4-----3--|--4--4--4-----3--3--3--|
D|-----------|-----------------------|

[Fast Part] (also Verse)
F|--------------------------------------------------------------------------|
C|--3--3--3--3--3--3--6--6--6--6--6--5--5--5--5--5--8--8--8--8--7--7--7--7--|
G|--------------------------------------------------------------------------|
D|--------------------------------------------------------------------------|
                                                     1st time             2nd time
F|-------------------------------------------------|--------------------|--------------------|
C|--3--3--3--3--3--3--6--6--6--6--6--5--5--5--5--5-|--------------------|--------------------|
G|-------------------------------------------------|--4--4--4--6--6--6--|--4--4--4--3--3--3--|
D|-------------------------------------------------|--------------------|--------------------|

[Pre-Chorus] 
F|---------------------------------------------------|
C|-----------------------------2h1-----3h2-----------|
G|--3h2---------2h1-----------------3-------3--3--3--|
D|-------3--3--------2--2----------------------------|

[Chorus]                       x3                     x1
F|-----------------------------|--3h2--------2h1--------| 
D|-----------------------------|-------3--3-------3--3--| (x4)    
G|-----------------------------|------------------------|     
D|--2--1--1--1--1--1--1--1--1--|------------------------|

after the 4th time you play this 3 times and end with the 4th fret

F|--3h2--------2h1--------|-------|
C|-------3--3-------3--3--|--4~---|   
G|------------------------|-------|
D|------------------------|-------|

[Solo]              x3           x3
F|-----|------------|-----------|
C|-----|-----4--3---|-----------|
G|--1--|--1---------|-----6--5--|
D|-----|------------|--4--------|


F|--------------------------------------------------------------| (x2)
C|-----------------------4--4--4--4--4--4--3--3--3--3--3--3--3--|
G|--1--1--1--1--1--1--1-----------------------------------------|
D|--------------------------------------------------------------|

F|-----------------------------------------------------------| (x2)
C|-----------------------------------------------------------|
G|--------------------6--6--6--6--6--5--5--5--5--5--5--5--5--|
D|--4--4--4--4--4--4-----------------------------------------|

F|--------------------------------------------------------------| (x2)
C|-----------------------4--4--4--4--4--4--3--3--3--3--3--3--3--|
G|--1--1--1--1--1--1--1-----------------------------------------|
D|--------------------------------------------------------------|

F|-----------------------------------------------------------| (x2)
C|-----------------------------------------------------------|
G|--------------------6--6--6--6--6--5--5--5--5--5--5--5--5--|
D|--4--4--4--4--4--4-----------------------------------------|

[Chorus]                       x3                     x1
F|-----------------------------|--3h2--------2h1--------|
D|-----------------------------|-------3--3-------3--3--| (x4)     
G|-----------------------------|------------------------|      
D|--2--1--1--1--1--1--1--1--1--|------------------------|

then play this (Alternative chorus)

F|-----------------------------|--3h2--------3h2-------|
C|-----------------------------|-------4---------3--3--| (x4)     
G|-----------------------------|-----------------------|
D|--2--1--1--1--1--1--1--1--1--|-----------------------|

F|--------------------------------------------------------------------------|
C|--3--3--3--3--3--3--6--6--6--6--6--5--5--5--5--5--8--8--8--8--7--7--7--7--|
G|--------------------------------------------------------------------------|
D|--------------------------------------------------------------------------|
                                                     1st time             2nd time
F|-------------------------------------------------|--------------------|--------------------|
C|--3--3--3--3--3--3--6--6--6--6--6--5--5--5--5--5-|--------------------|--------------------|
G|-------------------------------------------------|--4--4--4--6--6--6--|--4--4--4--3--3--3--|
D|-------------------------------------------------|--------------------|--------------------|

[Pre-Chorus] 
F|---------------------------------------------------|
C|-----------------------------2h1-----3h2-----------|
G|--3h2---------2h1-----------------3-------3--3--3--|
D|-------3--3--------2--2----------------------------|

[Chorus]                       x3                     x1
F|-----------------------------|--3h2--------2h1--------|
D|-----------------------------|-------3--3-------3--3--| (x4)    
G|-----------------------------|------------------------|      
D|--2--1--1--1--1--1--1--1--1--|------------------------|

then play this (Alternative chorus) unti fade out

F|-----------------------------|--3h2--------3h2-------|
C|-----------------------------|-------4---------3--3--| (x4)    
G|-----------------------------|-----------------------|
D|--2--1--1--1--1--1--1--1--1--|-----------------------|

            
            
Suggest correction
Creating personal tab
Creating personal tab
You can edit any tab online and save it as your Personal.

You can edit, replace or remove any tab part or add personal notes – all changes will be seen only by you.

Personal tabs can be accessed anytime from any device, even offline.
Learn more »
Give kudos to tab author, rate the tab!
1 2 3 4 5
comments
print report bad tab
guest
You may want to rate the tab now too:
select rating
Wanna post a correction for this tab? Suggest correction