Oops, an error
Loading. Please wait.

Secrets Of A Window bass

37 views 9 this week
no commentswrite comment
1 2 3 4 5
3 more votes to show rating
add to favorites
×
Save as Personal and add changes to this tab that will be seen only by you. Learn more ›
×
You can save this tab as Personal to edit and correct it or add notes. All changes will be seen only by you. Learn more »
launch autoscroll
font size
0
reset
guitar tuner
edit
Autoscroll
slow
fast
+/-
esc
set tempo
stop
Artist : Sarcofago
Album : The Laws Of Scourge
Song : Secrets Of A Window
Year : 1991
Tuning : DGCF

[Intro]                                                             1st time   2nd time
F|---------|--------------------------------------------------------|-------|----------|
C|---------|--------------------------------------------------------|-------|----------| (x8)
G|---------|--------------------------------------------------------|---2---|----------|
D|--2--2---|--1--0--0-----1--0--0-----1--0-----1--0--0-----1--0--0--|-------|---2--2---|

[Break]
F|-----|--------|-----|------|--------| (x1)
C|-----|--------|-----|------|--------|
G|-----|--------|-----|------|--------|
D|--2--|--2--2--|--2--|--2~--|--2--2--|

F|--------------------|----------------------| (x2)
C|--------------------|----------------------|
G|--------------0--3--|--------------0-------|
D|--2~-----2~---------|--2~-----2~--------3--|

F|-----------------------------|------------------------------| (x2)
C|-----------------------------|------------------------------|
G|--------------------0--2--3--|--------------------3--0------|
D|--2~-----2--2-----2----------|--2~-----2--2-----2--------3--|

[Verse]
F|------------------------------------------------|------------------------------------------------| (x4)
C|------------------------------------------------|------------------------------------------------|
G|------------------------------------------------|------------------------------------------------|
D|--2---2--2--2--2---2--2--2--2---2--2--2--2---3--|--0---0--0--0--0---0--0--0--0---0--0--0--0---3--|

[Break]
F|--------------------------------|--------------------------------| (x2)
C|--------------------------------|--------------------------------|
G|-----4--5--------3--4-----0--3--|-----4--5--------3--4-----0-----|
D|--2-----------2-----------------|--2-----------2--------------3--|

[Verse]
F|------------------------------------------------|------------------------------------------------| (x4)
C|------------------------------------------------|------------------------------------------------|
G|------------------------------------------------|------------------------------------------------|
D|--2---2--2--2--2---2--2--2--2---2--2--2--2---3--|--0---0--0--0--0---0--0--0--0---0--0--0--0---3--|

[Break]                                                         x3         4th time
F|--------------------------------|--------------------------------|--------------|
C|--------------------------------|--------------------------------|--------------|
G|-----4--5--------3--4-----0--3--|-----4--5--------3--4-----0-----|---0----------|
D|--2-----------2-----------------|--2-----------2--------------3--|-------3--2~--|

[After Acoustic]
F|----------------------------------| (x5)
C|----------------------------------|
G|----------------------------------|
D|--2--2-----7--5----4-----2--4--5--|

F|--------------------|--------------------| (x5)
C|--4-----------------|--4-----------------|
G|--------4--3--------|--------4--3-----4--|
D|-----------------3--|--------------------|

[Solo]
F|----------------------------------| (x4)
C|----------------------------------|
G|----------------------------------|
D|--2--2-----7--5----4-----2--4--5--|

F|--------------------|--------------------| (x2)
C|--4-----------------|--4-----------------|
G|--------4--3--------|--------4--3-----4--|
D|-----------------3--|--------------------|
                                          x2                 3rd time 
F|--------------------|--------------------|-------------------------|
C|--2-----------------|--2-----------------|--2-----------------2~---|
G|--------2--1--------|--------2--1-----3--|--------2--1-------------|
D|-----------------2--|--------------------|-----------------2-------|

[Ending]                                                            1st time   2nd time
F|---------|--------------------------------------------------------|-------|----------|
C|---------|--------------------------------------------------------|-------|----------| (x2)
G|---------|--------------------------------------------------------|---2---|----------|
D|--2--2---|--1--0--0-----1--0--0-----1--0-----1--0--0-----1--0--0--|-------|---2--2---|

            
            
Suggest correction
Creating personal tab
Creating personal tab
You can edit any tab online and save it as your Personal.

You can edit, replace or remove any tab part or add personal notes – all changes will be seen only by you.

Personal tabs can be accessed anytime from any device, even offline.
Learn more »
Give kudos to tab author, rate the tab!
1 2 3 4 5
comments
print report bad tab
guest
You may want to rate the tab now too:
select rating
Wanna post a correction for this tab? Suggest correction