Oops, an error
Loading. Please wait.

Matej Dogša - No Purity tab

13 views 3 this week
no commentswrite comment
1 2 3 4 5
3 more votes to show rating
add to favorites
×
Save as Personal and add changes to this tab that will be seen only by you. Learn more ›
×
You can save this tab as Personal to edit and correct it or add notes. All changes will be seen only by you. Learn more »
launch autoscroll
font size
0
reset
how to read this tab
guitar tuner
edit
Autoscroll
slow
fast
+/-
esc
set tempo
stop
Song: https://www.youtube.com/watch?v=ix1Whyhhg4Q

Tuning: B F# B E G# C#

Gtr. rhythm 1

  Intro
C#|-----------------------------------------------|
G#|-----------------------------------------------|
E |-----------------------------------------------|
B |-----------------------------------------------|
F#|--------0-0-0--0~--0-0-0--0~--0-0-0--0~0-0-0-0~|
B |-1/12\1-0-0-0--0~--0-0-0--0~--0-0-0--0~0-0-0-0~|


C#|-----------------------------------------------|
G#|-----------------------------------------------|
E |-----------------------------------------------|
B |-----------------------------------------------|
F#|0-0-0--0~--0-0-0--0~--0-0-0--0-4-1-3-1---------|
B |0-0-0--0~--0-0-0--0~--0-0-0--0-4-1-3-1---------|

C#|-----------------------------------------------|
G#|-----------------------------------------------|
E |-----------------------------------------------|
B |-----------------------------------------------|
F#|-0-0-0--0~--0-0-0--0~--0-0-0--0~0-0-0-0~-------|
B |-0-0-0--0~--0-0-0--0~--0-0-0--0~0-0-0-0~-------|

C#|-----------------------------------------------|
G#|-----------------------------------------------|
E |-----------------------------------------------|
B |-----------------------------------------------|
F#|0-0-0--0~--0-0-0--0~--0-0-0--0-4-1-3-1---------|
B |0-0-0--0~--0-0-0--0~--0-0-0--0-4-1-3-1---------|

Repeat the pattern.

Gtr. lead 1

C#|-----5-------5-------5-----8---6-----5---------|
G#|--4-4-4-4-4-4-4-4-4-4-4-4-4-4-4-4-4-4----------|
E |-7-7---7-7-7---7-7-7---7-7---7---7-7-----------|
B |-----------------------------------------------|
F#|-----------------------------------------------|
B |-----------------------------------------------|

Gtr. lead 2

C#|------------------------------------------------------------------|
G#|------------------------------------------------------------------|
E |-7§----5§----8§----3§----5§----7§----5§----8§----10§----12§----7§-|
B |------------------------------------------------------------------| 
F#|------------------------------------------------------------------|
B |------------------------------------------------------------------|

////////////////////////////////////////////////////////////////////////////////////

Verse

  Gtr. Rhythm 1
C#|---------------------------------------------------------------|
G#|---------------------------------------------------------------|
E |---------------------------------------------------------------|
B |---------------------------------------------------------------|
F#|0-0-0-0~-0--0~--0-0-0~-0-0-0~-0-0-0-0--0--0--0--0-0-0-0-0-0-0-0|
B |0-0-0-0~-0--0~--0-0-0~-0-0-0~-0-0-0-0--0--0--0--0-0-0-0-1-1-1-1|

Gtr. lead 1

C#|-------------------------------------------------------------------|
G#|-------------------------------------------------------------------|
E |-------------------------------------------------------------------|
B |-0-0-0-0-13-0-12-0-0-0-10-12-0-0-0-13-0-12-0-0-0-15-0-13-0-12-0-12-|
F#|-------------------------------------------------------------------|
B |-------------------------------------------------------------------|

C#|-------------------------------------------------------------------|
G#|-------------------------------------------------------------------|
E |-------------------------------------------------------------------|
B |-0-0-0-0-13-0-12-0-0-0-10-12-0-8-8-8-8-7-7-7-7---------------------|
F#|-------------------------------------------------------------------|
B |-------------------------------------------------------------------|

////////////////////////////////////////////////////////////////////////////////////

Verse 2 - rhythm same as intro rhythm, lead is different.

C#|-----------------------------------------------|
G#|-----------------------------------------------|
E |-----------------------------------------------|
B |-----------------------------------------------|
F#|-0-0-0--0~--0-0-0--0~--0-0-0--0~0-0-0-0~-------|
B |-0-0-0--0~--0-0-0--0~--0-0-0--0~0-0-0-0~-------|

C#|-----------------------------------------------|
G#|-----------------------------------------------|
E |-----------------------------------------------|
B |-----------------------------------------------|
F#|0-0-0--0~--0-0-0--0~--0-0-0--0-4-1-3-1---------|
B |0-0-0--0~--0-0-0--0~--0-0-0--0-4-1-3-1---------|

C#|----5---------5--------------------------------|
G#|-4-4--4----4-4--4------------------------------|
E |--7-----7---7-----7-5--------------------------|
B |-----------------------------------------------|
F#|-----------------------------------------------|
B |-----------------------------------------------|

////////////////////////////////////////////////////////////////////////////////////

''Verse bridge''

Gtr. rhythm 3

C#|---------------------------------------------------------|
G#|---------------------------------------------------------|
E |---------------------------------------------------------|
B |---------------------------------------------------------|
F#|0~-------------------------------------------------------|
B |0~-------------------------------------------------------|


C#|---------------------------------------------------------------|
G#|---------------------------------------------------------------|
E |---------------------------------------------------------------|
B |---------------------------------------------------------------|
F#|0-0-0-0~-0--0~--0-0-0~-0-0-0~-0-0-0-0--0--0--0--0-0-0-0-0-0-0-0|
B |0-0-0-0~-0--0~--0-0-0~-0-0-0~-0-0-0-0--0--0--0--0-0-0-0-1-1-1-1|

C#|---------------------------------------------------------|
G#|---------------------------------------------------------|
E |---------------------------------------------------------|
B |-12^-----------------------------------------------------| Tremolo pick the string and push it up to the 
F#|---------------------------------------------------------| correct note and then shake it.
B |---------------------------------------------------------|

C#|---------------------------------------------------------|
G#|---------------------------------------------------------|
E |---------------------------------------------------------|
B |---------------------------------------------------------| Pick slide.
F#|---------------------------------------------------------|
B |-------------------------------------------------><------|

////////////////////////////////////////////////////////////////////////////////////

Verse 2

Gtr. rhythm 1

C#|---------------------------------------------------------------|
G#|---------------------------------------------------------------|
E |---------------------------------------------------------------|
B |---------------------------------------------------------------|
F#|0-0-0-0~-0--0~--0-0-0~-0-0-0~-0-0-0-0--0--0--0--0-0-0-0-0-0-0-0|
B |0-0-0-0~-0--0~--0-0-0~-0-0-0~-0-0-0-0--0--0--0--0-0-0-0-1-1-1-1|

Gtr. lead 1

C#|-------------------------------------------------------------------|
G#|-------------------------------------------------------------------|
E |-------------------------------------------------------------------|
B |-0-0-0-0-13-0-12-0-0-0-10-12-0-0-0-13-0-12-0-0-0-15-0-13-0-12-0-12-|
F#|-------------------------------------------------------------------|
B |-------------------------------------------------------------------|

C#|-------------------------------------------------------------------|
G#|-------------------------------------------------------------------|
E |-------------------------------------------------------------------|
B |-0-0-0-0-13-0-12-0-0-0-10-12-0-8-8-8-8-7-7-7-7---------------------|
F#|-------------------------------------------------------------------|
B |-------------------------------------------------------------------|

C#|---------------------------------------------------------|
G#|---------------------------------------------------------|
E |---------------------------------------------------------|
B |---------------------------------------------------------|
F#|0~~~~~~~~~-----------------------------------------------|
B |0~~~~~~~~~-----------------------------------------------|

Gtr. lead 1

C#|-------------------------------------------------------------------|
G#|-------------------------------------------------------------------|
E |-------------------------------------------------------------------|
B |-0-0-0-0-13-0-12-0-0-0-10-12-0-0-0-13-0-12-0-0-0-15-0-13-0-12-0-12-|
F#|-------------------------------------------------------------------|
B |-------------------------------------------------------------------|

C#|-------------------------------------------------------------------|
G#|-------------------------------------------------------------------|
E |-------------------------------------------------------------------|
B |-0-0-0-0-13-0-12-0-0-0-10-12-0-8-8-8-8-7-7-7-7---------------------|
F#|-------------------------------------------------------------------|
B |-------------------------------------------------------------------|


////////////////////////////////////////////////////////////////////////////////////

Interlude (i guess)

Gtr. Rhythm 1

C#|---------------------------------------------------------|
G#|---------------------------------------------------------|
E |---------------------------------------------------------|
B |-0-0-0-0-0-0-0-0-0-0-0-0-0-0-0-0-------------------------| 
F#|-0-0-0-0-0-0-0-0-0-0-0-0-0-0-0-0-------------------------|
B |-0-0-0-0-0-0-0-0-0-0-0-0-0-0-0-0-------------------------|

C#|---------------------------------------------------------|
G#|---------------------------------------------------------|
E |---------------------------------------------------------|
B |-8-8-8-8-8-8-8-8-8-8-8-8-8-8-8-8-------------------------| 
F#|-8-8-8-8-8-8-8-8-8-8-8-8-8-8-8-8-------------------------|
B |-8-8-8-8-8-8-8-8-8-8-8-8-8-8-8-8-------------------------|

Gtr. Lead 1.

C#|---------------------------------------------------------|
G#|---------------------------------------------------------|
E |-7----9----10----17----15--------------------------------|
B |--------- -----------------------------------------------| 
F#|-5----7----8-----15----13--------------------------------|
B |---------------------------------------------------------|

C#|---------------------------------------------------------|
G#|---------------------------------------------------------|
E |-7----9----10----7----5----7~~~--------------------------|
B |--------- -----------------------------------------------| 
F#|-5----7----8-----5----3----5~~~--------------------------|
B |---------------------------------------------------------|

Outro

Gtr. Rhythm 1

C#|---------------------------------------------------------|
G#|---------------------------------------------------------|
E |---------------------------------------------------------|
B |---------------------------------------------------------| 
F#|-0~-----------0~---------0~------------------------------|
B |-0~-----------0~---------0~------------------------------|

Gtr. Lead 1

C#|-----13§-12§-----13§-12§-10~~~~~-------------------------|
G#|-10§---------10§-----------------------------------------|
E |---------------------------------------------------------|
B |---------------------------------------------------------| 
F#|---------------------------------------------------------|
B |---------------------------------------------------------|


*******************************

| *   palm mute
| /   slide up
| \   slide down
| ><  pick slide
| ~   string fade
| §   tremolo pick

*******************************
Suggest correction
Creating personal tab
Creating personal tab
You can edit any tab online and save it as your Personal.

You can edit, replace or remove any tab part or add personal notes – all changes will be seen only by you.

Personal tabs can be accessed anytime from any device, even offline.
Learn more »
Give kudos to tab author, rate the tab!
1 2 3 4 5
comments
print report bad tab
guest
You may want to rate the tab now too:
select rating
Wanna post a correction for this tab? Suggest correction