Oops, an error
Loading. Please wait.

No Mythologies To Follow Live tab

by
22 views 3 this week
no commentswrite comment
1 2 3 4 5
3 more votes to show rating
add to favorites
×
Save as Personal and add changes to this tab that will be seen only by you. Learn more ›
×
You can save this tab as Personal to edit and correct it or add notes. All changes will be seen only by you. Learn more »
launch autoscroll
font size
0
reset
how to read this tab
guitar tuner
edit
Autoscroll
slow
fast
+/-
esc
set tempo
stop
Artist: MØ
Song: No Mythologies To Follow (live)

[Intro]
e|----------------------------------------------|
B|----------------------------------------------|
G|-12-12-x-x-x-12-12-x-x-x-12-12-x-x-x-12-12...-|
D|----------------------------------------------|
A|----------------------------------------------|
E|----------------------------------------------|

[Verse 1]
N.C.
Born free, hanging in the trees
And waiting for the duties coming for me
All we ever do is count the time, following something
Riddles in their diamond rings
Please cure the disease
Come on, baby, get a pretty picture of these
While the world is dreaming about gold
Digging in their holes, oh, digging in their sleepless souls

[Pre-Chorus]
You make me..

e|--3-3--3-3-3-3--3--3-3-3-3--3--3-3-3-3--3--5p3------------------------------------------------|
B|-----------------------------------------------5-3--3--3-3-3-3--3-3-5-------------------------|
G|----------------------------------------------------------------------3--3--3-3-3-3--3--3-3-3-|
D|----------------------------------------------------------------------------------------------|
A|----------------------------------------------------------------------------------------------|
E|----------------------------------------------------------------------------------------------|
  wanna....       spit on your honor..       Go with the bus waiting...  'round the corner

To seek the..

e|--15-15--15-15-15-15--15--15-15-15-15--15--15-15-15-15--15--18p15------------------------|
B|------------------------------------------------------------------18-15--15--15-15-15-15-|
G|-----------------------------------------------------------------------------------------|
D|-----------------------------------------------------------------------------------------|
A|-----------------------------------------------------------------------------------------|
E|-----------------------------------------------------------------------------------------|
   fire....             and my desires                      "If we could all just do.. 
e|---------------------|
B|-15-15-15-18---------|
G|-------------15------|
D|---------------------|
A|---------------------|
E|---------------------|
    as they do!"

[Chorus]
e|-------------------------------------------------------------------|
B|-------------------------------------------------------------------|
G|-------------------------------------------------------------------|
D|--5---8---10---5---------------------------------------------------|
A|--5---6---8----3---------------------------------------------------|
E|--3----------------------------------------------------------------|
    G   Eb  F    C

 G
Where, oh, where do we go?
 Eb
Where the, where the wind blows
 F
We’re the youth on our own
 C
Waiting for our call
 G
Where, oh, where do we go?
 Eb
Where the, where the wind blows
 F                 C 
Generation with no mythologies to follow

e|----------------------------------------------|
B|----------------------------------------------|
G|-12-12-x-x-x-12-12-x-x-x-12-12-x-x-x-12-12...-|
D|----------------------------------------------|
A|----------------------------------------------|
E|----------------------------------------------|

[Verse 2]
N.C.
Born free, who am I to be
When nothing in the world will have to rely on me?
I remember good old times, the starships in your eyes
Now we’re just getting drunk and die

[Pre-Chorus]

You make me..

e|--3-3--3-3-3-3--3--3-3-3-3--3--3-3-3-3--3--5p3------------------------------------------------|
B|-----------------------------------------------5-3--3--3-3-3-3--3-3-5-------------------------|
G|----------------------------------------------------------------------3--3--3-3-3-3--3--3-3-3-|
D|----------------------------------------------------------------------------------------------|
A|----------------------------------------------------------------------------------------------|
E|----------------------------------------------------------------------------------------------|
  wanna....       waste by your wonder..       Only the gods save you...     when I’m gone

And we walk in..

e|--15-15--15-15-15-15--15--15-15-15-15--15--15-15-15-15--15--18p15------------------------|
B|------------------------------------------------------------------18-15--15--15-15-15-15-|
G|-----------------------------------------------------------------------------------------|
D|-----------------------------------------------------------------------------------------|
A|-----------------------------------------------------------------------------------------|
E|-----------------------------------------------------------------------------------------|
   fire....             like every riot                          But we do not know.. 
e|---------------------|
B|-15-15-15-18---------|
G|-------------15------|
D|---------------------|
A|---------------------|
E|---------------------|
     what to do!

[Chorus]
e|------------------|
B|------------------|
G|------------------|
D|--5---8---10---5--|
A|--5---6---8----3--|
E|--3---------------|
    G   Eb  F    C

 G
Where, oh, where do we go?
 Eb
Where the, where the wind blows
 F
We’re the youth on our own
 C
Waiting for our call
 G
Where, oh, where do we go?
 Eb
Where the, where the wind blows
 F                 C 
Generation with no mythologies to follow

[Post-Chorus]
e|---------------------|
B|---------------------|
G|---------------------|
D|--5---8---10---5--3--|
A|--5---6---8----3--3--|
E|--3---------------1--|
    G   Eb  F    C  F*

 G                        Eb
We go on and we go on, go nowhere every day
      F                               C
We’re trying to suppress that nothing matters anyway
G                 Eb
Ride it, ride it 'til you’re hollow
F*       
We got no mythologies to follow

e|----------------------------------------------|
B|----------------------------------------------|
G|-12-12-x-x-x-12-12-x-x-x-12-12-x-x-x-12-12...-|
D|----------------------------------------------|
A|----------------------------------------------|
E|----------------------------------------------|
  Oh.. oh.. oh, oh..      oh, oh...                        

  ...We got no mythologies to follow

[Pre-Chorus]
You make me..

e|--3-3--3-3-3-3--3--3-3-3-3--3--3-3-3-3--3--5p3------------------------------------------------|
B|-----------------------------------------------5-3--3--3-3-3-3--3-3-5-------------------------|
G|----------------------------------------------------------------------3--3--3-3-3-3--3--3-3-3-|
D|----------------------------------------------------------------------------------------------|
A|----------------------------------------------------------------------------------------------|
E|----------------------------------------------------------------------------------------------|
  wanna....       spit on your honor..       Go with the bus waiting...  'round the corner

To seek the..

e|--15-15--15-15-15-15--15--15-15-15-15--15--15-15-15-15--15--18p15------------------------|
B|------------------------------------------------------------------18-15--15--15-15-15-15-|
G|-----------------------------------------------------------------------------------------|
D|-----------------------------------------------------------------------------------------|
A|-----------------------------------------------------------------------------------------|
E|-----------------------------------------------------------------------------------------|
   fire....             and my desires                      "If we could all just do.. 
e|---------------------|
B|-15-15-15-18---------|
G|-------------15------|
D|---------------------|
A|---------------------|
E|---------------------|
    as they do!"

[Chorus]
e|-------------------|
B|-------------------|
G|-------------------|
D|--5---8---10---5---|
A|--5---6---8----3---|
E|--3----------------|
    G   Eb  F    C

 G
Where, oh, where do we go?
 Eb
Where the, where the wind blows
 F
We’re the youth on our own
 C
Waiting for our call
 G
Where, oh, where do we go?
 Eb
Where the, where the wind blows
 F                 C 
Generation with no mythologies to follow

[Post-Chorus]
e|---------------------|
B|---------------------|
G|---------------------|
D|--5---8---10---5--3--|
A|--5---6---8----3--3--|
E|--3---------------1--|
    G   Eb  F    C  F*

 G                        Eb
We go on and we go on, go nowhere every day
      F                               C
We’re trying to suppress that nothing matters anyway
G                 Eb
Ride it, ride it 'til you’re hollow
F*       
We got no mythologies to follow

[Outro]
e|--15-15--15-15-15-15--15--15-15-15-15--15--15-15-15-15--15--18p15------------------------|
B|------------------------------------------------------------------18-15--15--15-15-15-15-|
G|-----------------------------------------------------------------------------------------|
D|-----------------------------------------------------------------------------------------|
A|-----------------------------------------------------------------------------------------|
E|-----------------------------------------------------------------------------------------|

e|-------------------------------------------------|
B|-15--15-15-18------------------------------------|
G|--------------15--15--15-15-15-15--15--15-15-15--|
D|-------------------------------------------------|
A|-------------------------------------------------|
E|-------------------------------------------------|

e|--15-15--15-15-15-15--15--15-15-15-15--15--15-15-15-15--15--18p15------------------------|
B|------------------------------------------------------------------18-15--15--15-15-15-15-|
G|-----------------------------------------------------------------------------------------|
D|-----------------------------------------------------------------------------------------|
A|-----------------------------------------------------------------------------------------|
E|-----------------------------------------------------------------------------------------|
  
e|---------------------|
B|-15-15-15-18---------|
G|-------------15------|
D|---------------------|
A|---------------------|
E|---------------------|

***********************************
 
| x  Death note
| p  Pull-off
| N.C.  No chords

***********************************

            
            
Suggest correction
Creating personal tab
Creating personal tab
You can edit any tab online and save it as your Personal.

You can edit, replace or remove any tab part or add personal notes – all changes will be seen only by you.

Personal tabs can be accessed anytime from any device, even offline.
Learn more »
Give kudos to tab author, rate the tab!
1 2 3 4 5
comments
print report bad tab
guest
You may want to rate the tab now too:
select rating
Wanna post a correction for this tab? Suggest correction